Oops, an error
Loading. Please wait.

Paradise What About Us tab

version 1
version 1

Whole song

Interactive

2,406 views 12 this week
no commentswrite comment
1 2 3 4 5
1 last vote to show rating
add to favorites
×
Save as Personal and add changes to this tab that will be seen only by you. Learn more ›
×
You can save this tab as Personal to edit and correct it or add notes. All changes will be seen only by you. Learn more »
launch autoscroll
font size
0
reset
how to read this tab
guitar tuner
edit
Autoscroll
slow
fast
+/-
esc
set tempo
stop
-------------------------------------------------------------------------------
                PARADISE (WHAT ABOUT US) - Within Temptation
-------------------------------------------------------------------------------
Tabbed by: GaleForceRock
E-mail: galeforce100@icloud.com

Tuning: Drop D

I think they actually play this on a seven-string, but this is an arrangement that works
quite well for Drop D.
Also check out my Guitar Pro Tab of this song.

Intro (x2)
e|---------------------------------|---------------------------------|
B|---------------------------------|---------------------------------|
G|---------------------------------|---------------------------------|
D|---------2-----2-----------------|---------2-----2---------3---0---|
A|---------2-----2-----------------|---------2-----2---------3---0---|
D|-0-2-2-0-2---0-2---0-2-0-2-3-2-0-|-0-2-2-0-2---0-2---0-2-0-3---0---|
   * * * *     *     * * * * * * *   * * * *     *     * * *
Verse 1
e|-----------------------------------------------------------------|
B|-----------------------------------------------------------------|
G|-----------------------------------------------------------------|
D|-----------------------------------------------------------------|
A|---------------------------------3-3-3-3-3-3-3-3-3-3-3-3-3-3-3-3-|
D|-2-2-2-2-2-2-2-2-2-2-2-2-2-2-2-2---------------------------------|
   * * * * * * * * * * * * * * * * * * * * * * * * * * * * * * * *
e|-----------------------------------------------------------------|
B|-----------------------------------------------------------------|
G|-----------------------------------------------------------------|
D|-----------------------------------------------------------------|
A|-----------------------------------------------------------------|
D|-0-0-0-0-0-0-0-0-0-0-0-0-0-0-0-5-7-7-7-7-7-7-7-7-5-5-5-5-4-4-4-4-|
   * * * * * * * * * * * * * * * * * * * * * * * * * * * * * * * *
e|-----------------------------------------------------------------|
B|-----------------------------------------------------------------|
G|-----------------------------------------------------------5---5-|
D|-----------------------------------------------------------5---5-|
A|---------------------------------3-3-3-3-3-3-3-3-3-3-3-3-3-3-3-3-|
D|-2-2-2-2-2-2-2-2-2-2-2-2-2-2-2-2---------------------------------|
   * * * * * * * * * * * * * * * * * * * * * * * * * * * * *   *
e|-----------------------------------------------------------------|
B|-----------------------------------------------------------------|
G|-----------------------------------------------------------------|
D|-----------------------------------------------------------------|
A|-----------------------------------------------------------------|
D|-0-0-0-0-0-0-0-0-0-0-0-0-0-0-0-0-7-7-7-7-7-7-7-7-5-5-5-5-4-4-4-4-|
   * * * * * * * * * * * * * * * * * * * * * * * * * * * * * * * *
Pre-Chorus 1
e|-----------------------------------------------------------------|
B|-----------------------------------------------------------------|
G|-5---5---5---5---5---5-------5-----------------------------------|
D|-5---5---5---5---5---5-------5---2---2---2---2---2---2-------2---|
A|-3-3-3-3-3-3-3-3-3-3-3-3-3-3-3-3-2---2---2---2---2---2-------2---|
D|---------------------------------2-2-2-2-2-2-2-2-2-2-2-2-2-2-2-2-|
     *   *   *   *   *   * * *   *   *   *   *   *   *   * * *   *
e|-----------------------------------------------------------------|
B|-----------------------------------------------------------------|
G|-5---5---5---5---5---5-------5-----------------------------------|
D|-5---5---5---5---5---5-------5---0---0---0---0---4---------------|
A|-3-3-3-3-3-3-3-3-3-3-3-3-3-3-3-3-0---0---0---0---2---------------|
D|---------------------------------0-0-0-0-0-0-0-0-4---------------|
     *   *   *   *   *   * * *   *   *   *   *   *
Chorus 1
e|-----------------------------------------------------------------|
B|-----------------------------------------------------------------|
G|-----------------5-----5-----5-----------------------------------|
D|-2-----2-----2---5-----5-----5---0-----0-----0---7-----7---------|
A|-2-----2-----2---3-3-3-3-3-3-3-3-0-----0-----0---7-----7---------|
D|-2-2-2-2-2-2-2-2-----------------0-0-0-0-0-0-0-0-7-7-7-7-7-7-5-4-|
     * *   * *   *   * *   * *   *   * *   * *   *   * *   * * * *
e|-----------------------------------------------------------------|
B|-----------------------------------------------------------------|
G|-----------------5-----5-----5-----------------------------------|
D|-2-----2-----2---5-----5-----5---0-----0-----0---4-----4-----4---|
A|-2-----2-----2---3-3-3-3-3-3-3-3-0-----0-----0---2-----2-----2---|
D|-2-2-2-2-2-2-2-2-----------------0-0-0-0-0-0-0-0-4-4-4-4-4-4-4-4-|
     * *   * *   *   * *   * *   *   * *   * *   *   * *   * *   *
e|-----------------------------------------------------------------|
B|-----------------------------------------------------------------|
G|-5---5---5---5---------------------------------------------------|
D|-5---5---5---5---2---2---2---2---0---0---0-------4---4---4-------|
A|-3-3-3-3-3-3-3-3-2---2---2---2---0---0---0-------2---2---2-------|
D|-----------------2-2-2-2-2-2-2-2-0-0-0-0-0-0-0-0-4-4-4-4-4-4-4-4-|
     *   *   *   *   *   *   *   *   *   *   * * *   *   *   * * *
e|---------------------------------|
B|---------------------------------|
G|-5-----5-----5-------------------|
D|-5-----5-----5---0-----0---------|
A|-3-3-3-3-3-3-3-3-0-----0---------|
D|-----------------0-0-0-0-0-0-0-0-|
     * *   * *   *   * *   * * * *
Interlude
e|---------------------------------|---------------------------------|
B|---------------------------------|---------------------------------|
G|---------------------------------|---------------------------------|
D|---------2-----2-----------------|---------2-----2---------0---5---|
A|---------2-----2-----------------|---------2-----2---------0---5---|
D|-0-2-2-0-2---0-2---0-2-0-2-3-2-0-|-0-2-2-0-2---0-2---0-2-0-0---5---|
   * * * *     *     * * * * * * *   * * * *     *     * * *
Verse 2
e|-----------------------------------------------------------------|
B|-----------------------------------------------------------------|
G|-----------------------------------------------------------------|
D|-----------------------------------------------------------------|
A|---------------------------------3-3-3-3-3-3-3-3-3-3-3-3-3-3-3-3-|
D|-2-2-2-2-2-2-2-2-2-2-2-2-2-2-2-2---------------------------------|
   * * * * * * * * * * * * * * * * * * * * * * * * * * * * * * * *
e|-----------------------------------------------------------------|
B|-----------------------------------------------------------------|
G|-----------------------------------------------------------------|
D|-----------------------------------------------------------------|
A|-----------------------------------------------------------------|
D|-0-0-0-0-0-0-0-0-0-0-0-0-0-0-0-0-7-7-7-7-7-7-7-7-5-5-5-5-4-4-4-4-|
   * * * * * * * * * * * * * * * * * * * * * * * * * * * * * * * *
e|-----------------------------------------------------------------|
B|-----------------------------------------------------------------|
G|-----------------------------------------------------------5---5-|
D|-----------------------------------------------------------5---5-|
A|---------------------------------3-3-3-3-3-3-3-3-3-3-3-3-3-3-3-3-|
D|-2-2-2-2-2-2-2-2-2-2-2-2-2-2-2-2---------------------------------|
   * * * * * * * * * * * * * * * * * * * * * * * * * * * * *   *
e|-----------------------------------------------------------------|
B|-----------------------------------------------------------------|
G|-----------------------------------------------------------------|
D|-----------------------------------------------------------------|
A|-----------------------------------------------------------------|
D|-0-0-0-0-0-0-0-0-0-0-0-0-0-0-0-5-7-7-7-7-7-7-7-7-5-5-5-5-4-4-4-4-|
   * * * * * * * * * * * * * * * * * * * * * * * * * * * * * * * *
Pre-Chorus 2
e|-----------------------------------------------------------------|
B|-----------------------------------------------------------------|
G|-5---5---5---5---5---5-------5-----------------------------------|
D|-5---5---5---5---5---5-------5---2---2---2---2---2---2-------2---|
A|-3-3-3-3-3-3-3-3-3-3-3-3-3-3-3-3-2---2---2---2---2---2-------2---|
D|---------------------------------2-2-2-2-2-2-2-2-2-2-2-2-2-2-2-2-|
     *   *   *   *   *   * * *   *   *   *   *   *   *   * * *   *
e|-----------------------------------------------------------------|
B|-----------------------------------------------------------------|
G|-5---5---5---5---5---5-------5-----------------------------------|
D|-5---5---5---5---5---5-------5---0---0---0---0---4---4---4---4---|
A|-3-3-3-3-3-3-3-3-3-3-3-3-3-3-3-3-0---0---0---0---2---2---2---2---|
D|---------------------------------0-0-0-0-0-0-0-0-4-4-4-4-4-4-4-4-|
     *   *   *   *   *   * * *   *   *   *   *   *   *   *   *   *
Chorus 2
e|-----------------------------------------------------------------|
B|-----------------------------------------------------------------|
G|-----------------5-----5-----5-----------------------------------|
D|-2-----2-----2---5-----5-----5---0-----0-----0---7-----7---------|
A|-2-----2-----2---3-3-3-3-3-3-3-3-0-----0-----0---7-----7---------|
D|-2-2-2-2-2-2-2-2-----------------0-0-0-0-0-0-0-0-7-7-7-7-7-7-5-4-|
     * *   * *   *   * *   * *   *   * *   * *   *   * *   * * * *
e|-----------------------------------------------------------------|
B|-----------------------------------------------------------------|
G|-----------------5-----5-----5-----------------------------------|
D|-2-----2-----2---5-----5-----5---0-----0-----0---4-----4-----4---|
A|-2-----2-----2---3-3-3-3-3-3-3-3-0-----0-----0---2-----2-----2---|
D|-2-2-2-2-2-2-2-2-----------------0-0-0-0-0-0-0-0-4-4-4-4-4-4-4-4-|
     * *   * *   *   * *   * *   *   * *   * *   *   * *   * *   *
e|-----------------------------------------------------------------|
B|-----------------------------------------------------------------|
G|-5---5---5---5---------------------------------------------------|
D|-5---5---5---5---2---2---2---2---0---0---0-------4---4---4-------|
A|-3-3-3-3-3-3-3-3-2---2---2---2---0---0---0-------2---2---2-------|
D|-----------------2-2-2-2-2-2-2-2-0-0-0-0-0-0-0-0-4-4-4-4-4-4-4-4-|
     *   *   *   *   *   *   *   *   *   *   * * *   *   *   * * *
e|---------------------------------|
B|---------------------------------|
G|-5-----5-----5-------------------|
D|-5-----5-----5---0-----0---------|
A|-3-3-3-3-3-3-3-3-0-----0---------|
D|-----------------0-0-0-0-0-0-0-0-|
     * *   * *   *   * *   * * * *
Bridge
e|--------------------------------------------------------------|
B|--------------------------------------------------------------|
G|-5------------------------------------------------------------|
D|-5-(x16)--------0--------------4--------------2----------0----|
A|-3--------------0-(x16)--------2-(x16)--------2-(x12)----0(x4)|
D|----------------0--------------4--------------2----------0----|

e|-------------------------------------------------|
B|-------------------------------------------------|
G|-5-----------------------------------------------|
D|-5-(x16)--------0--------------2-------5----0----|
A|-3--------------0-(x16)--------2-(x8)--3(x4)0(x4)|
D|----------------0--------------2-------5----0----|

Interlude
e|---------------------------------|---------------------------------|
B|---------------------------------|---------------------------------|
G|---------------------------------|---------------------------------|
D|---------2-----2-----------------|---------2-----2---------3---0---|
A|---------2-----2-----------------|---------2-----2---------3---0---|
D|-0-2-2-0-2---0-2---0-2-0-2-3-2-0-|-0-2-2-0-2---0-2---0-2-0-3---0---|
   * * * *     *     * * * * * * *   * * * *     *     * * *
e|---------------------------------|---------------------------------|
B|---------------------------------|---------------------------------|
G|---------------------------------|---------------------------------|
D|---------2-----2-----------------|---------2-----2---------0---5---|
A|---------2-----2-----------------|---------2-----2---------0---5---|
D|-0-2-2-0-2---0-2---0-2-0-2-3-2-0-|-0-2-2-0-2---0-2---0-2-0-0---5---|
   * * * *     *     * * * * * * *   * * * *     *     * * *
Solo (Rhythm)
e|---------------------------------|---------------------------------|
B|---------------------------------|---------------------------------|
G|---------------------------------|---------------------------------|
D|---------2-----2-----------------|---------2-----2---------3---0---|
A|---------2-----2-----------------|---------2-----2---------3---0---|
D|-0-2-2-0-2---0-2---0-2-0-2-3-2-0-|-0-2-2-0-2---0-2---0-2-0-3---0---|
   * * * *     *     * * * * * * *   * * * *     *     * * *
e|---------------------------------|---------------------------------|
B|---------------------------------|---------------------------------|
G|---------------------------------|---------------------------------|
D|---------2-----2-----------------|---------2-------4---------------|
A|---------2-----2-----------------|---------2-------2---------------|
D|-0-2-2-0-2---0-2---0-2-0-2-3-2-0-|-0-2-2-0-2---0-0-4---------------|
   * * * *     *     * * * * * * *   * * * *     * *
Solo (Lead) - Check out my guitar pro tab for more accurate rhythms for this
e|-----------------------------------------------------------------------|
B|-----------------------------------------12b-------12---10---12--------|
G|-11b--11b--11b--11b--11b--11br-11---9----------------------------------|
D|-----------------------------------------------------------------------|
A|-----------------------------------------------------------------------|
D|-----------------------------------------------------------------------|
                                                               ~
e|-------------------------------------------------|
B|-------12br--------------12-10-12----------12-13-|
G|-------------------------------------------------|
D|-------------------------------------------------|
A|-------------------------------------------------|
D|-------------------------------------------------|

e|-------------------------------------------------|
B|-10-12----10----------------------------------10-|
G|-------12----11-12-9--11----9--11-12-9--11-12----|
D|-------------------------13----------------------|
A|-------------------------------------------------|
D|-------------------------------------------------|

e|--------------------------------------------------|
B|-12-10-8------------------------------------------|
G|----------11-9--8---------------------------------|
D|-------------------10-9--7------------------------|
A|----------------------------10-9--7--5----/----13-|
D|--------------------------------------------------|

e|-------------------------------------------------|
B|----------14-------14----14-------12-------11----|
G|-------------------------------------------------|
D|-------------------------------------------------|
A|-------------------------------------------------|
D|-------------------------------------------------|

e|-12-12-12-12-14-14-14-14-15-15-15-15-15----14-14-|
B|-------------------------------------------------|
G|-------------------------------------------------|
D|-------------------------------------------------|
A|-------------------------------------------------|
D|-------------------------------------------------|

e|-14--15--14--------14----17----15----14----------15----14----------14----------------14--15--17--|
B|-------------17----------------------------17----------------17----------16----17----------------|
G|-------------------------------------------------------------------------------------------------|
D|-------------------------------------------------------------------------------------------------|
A|-------------------------------------------------------------------------------------------------|
D|-------------------------------------------------------------------------------------------------|

e|-19----------------------------------------------|
B|-------------------------------------------------|
G|-------------------------------------------------|
D|-------------------------------------------------|
A|-------------------------------------------------|
D|-------------------------------------------------|

Chorus 3
e|-----------------------------------------------------------------|
B|-----------------------------------------------------------------|
G|-5---5---5---5---------------------------------------------------|
D|-5---5---5---5---2---2---2---2---0---0---0-------4---4---4-------|
A|-3-3-3-3-3-3-3-3-2---2---2---2---0---0---0-------2---2---2-------|
D|-----------------2-2-2-2-2-2-2-2-0-0-0-0-0-0-0-0-4-4-4-4-4-4-4-4-|
     *   *   *   *   *   *   *   *   *   *   * * *   *   *   * * *
Chorus 4
e|-----------------------------------------------------------------|
B|-----------------------------------------------------------------|
G|-----------------5-----5-----5-----------------------------------|
D|-2-----2-----2---5-----5-----5---0-----0-----0---7-----7---------|
A|-2-----2-----2---3-3-3-3-3-3-3-3-0-----0-----0---7-----7---------|
D|-2-2-2-2-2-2-2-2-----------------0-0-0-0-0-0-0-0-7-7-7-7-7-7-5-4-|
     * *   * *   *   * *   * *   *   * *   * *   *   * *   * * * *
e|-----------------------------------------------------------------|
B|-----------------------------------------------------------------|
G|-----------------5-----5-----5-----------------------------------|
D|-2-----2-----2---5-----5-----5---0-----0-----0---4-----4-----4---|
A|-2-----2-----2---3-3-3-3-3-3-3-3-0-----0-----0---2-----2-----2---|
D|-2-2-2-2-2-2-2-2-----------------0-0-0-0-0-0-0-0-4-4-4-4-4-4-4-4-|
     * *   * *   *   * *   * *   *   * *   * *   *   * *   * *   *
e|-----------------------------------------------------------------|
B|-----------------------------------------------------------------|
G|-5---5---5---5---------------------------------------------------|
D|-5---5---5---5---2---2---2---2---0---0---0-------4---4---4-------|
A|-3-3-3-3-3-3-3-3-2---2---2---2---0---0---0-------2---2---2-------|
D|-----------------2-2-2-2-2-2-2-2-0-0-0-0-0-0-0-0-4-4-4-4-4-4-4-4-|
     *   *   *   *   *   *   *   *   *   *   * * *   *   *   * * *
e|---------------------------------|
B|---------------------------------|
G|-5-----5-----5-------------------|
D|-5-----5-----5---0-----0---------|
A|-3-3-3-3-3-3-3-3-0-----0---------|
D|-----------------0-0-0-0-0-0-0-0-|
     * *   * *   *   * *   * * * *
Outro Part 1 (x2)
e|-----------------------------------------------------------------|
B|-----------------------------------------------------------------|
G|-----------------5-----5-----5-----------------------------------|
D|-2-----2-----2---5-----5-----5---0-----0-----0---4-----4-----4---|
A|-2-----2-----2---3-3-3-3-3-3-3-3-0-----0-----0---2-----2-----2---|
D|-2-2-2-2-2-2-2-2-----------------0-0-0-0-0-0-0-0-4-4-4-4-4-4-4-4-|
     * *   * *   *   * *   * *   *   * *   * *   *   * *   * *   *
Outro Part 2 (x2)
e|-----------------------------------------------------------------|
B|-----------------------------------------------------------------|
G|-----------------5---5---5---5-----------------------------------|
D|-2---2---2---2---5---5---5---5---0---0---0---0---4---4---4---4---|
A|-2---2---2---2---3-3-3-3-3-3-3-3-0---0---0---0---2---2---2---2---|
D|-2-2-2-2-2-2-2-2-----------------0-0-0-0-0-0-0-0-4-4-4-4-4-4-4-4-|
     *   *   *   *   *   *   *   *   *   *   *   *   *   *   *   *
Thanks for reading the tab, please rate and comment corrections!

************************************

| *   palm mute
| /   slide up
| \   slide down
| h   hammer-on
| p   pull-off
| ~   vibrato
| +   harmonic
| x   Mute note
| b   Bend
| pb  Pre-bend
| br  Bend release
| pbr Pre-bend release
| brb Bend release bend

************************************

            
            
Suggest correction
Creating personal tab
Creating personal tab
You can edit any tab online and save it as your Personal.

You can edit, replace or remove any tab part or add personal notes – all changes will be seen only by you.

Personal tabs can be accessed anytime from any device, even offline.
Learn more »
Give kudos to tab author, rate the tab!
1 2 3 4 5
comments
print report bad tab
guest
You may want to rate the tab now too:
select rating
Wanna post a correction for this tab? Suggest correction