Oops, an error
Loading. Please wait.

Paradise What About Us tab

version 2
version 2

Whole song

Interactive

658 views 12 this week
no commentswrite comment
1 2 3 4 5
3 more votes to show rating
add to favorites
×
Save as Personal and add changes to this tab that will be seen only by you. Learn more ›
×
You can save this tab as Personal to edit and correct it or add notes. All changes will be seen only by you. Learn more »
launch autoscroll
font size
0
reset
how to read this tab
guitar tuner
edit
Autoscroll
slow
fast
+/-
esc
set tempo
stop
Author
Difficulty
intermediate
-------------------------------------------------------------------------------
                  PARADISE (WHAT ABOUT US) - Within Temptation
-------------------------------------------------------------------------------
Tabbed by: GaleForceRocks
E-mail: galeforce100@icloud.com

Tuning: Standard 7-string

I also have a version of this tab in Drop D tuning here:
http://tabs.ultimate-guitar.com/w/within_temptation/paradise_what_about_us_tab.htm
Also check out my Guitar Pro Tab of this song.

Intro (x2)
e|---------------------------------|---------------------------------|
b|---------------------------------|---------------------------------|
G|---------------------------------|---------------------------------|
D|---------2-----2-----------------|---------2-----2---------3-------|
A|---------2-----2-----------------|---------2-----2---------3---5---|
E|---0-0---0-----0-----0---0-1-0---|---0-0---0-----0-----0---1---5---|
B|-3-----3-----3-----3---3-------3-|-3-----3-----3-----3---3-----3---|
   * * * *     *     * * * * * * *   * * * *     *     * * *
Verse 1
e|-----------------------------------------------------------------|
b|-----------------------------------------------------------------|
G|-----------------------------------------------------------------|
D|-----------------------------------------------------------------|
A|-----------------------------------------------------------------|
E|-0-0-0-0-0-0-0-0-0-0-0-0-0-0-0-0---------------------------------|
B|---------------------------------1-1-1-1-1-1-1-1-1-1-1-1-1-1-1-1-|
   * * * * * * * * * * * * * * * * * * * * * * * * * * * * * * * *
e|-----------------------------------------------------------------|
b|-----------------------------------------------------------------|
G|-----------------------------------------------------------------|
D|-----------------------------------------------------------------|
A|---------------------------------0-0-0-0-0-0-0-0-----------------|
E|-------------------------------3-----------------3-3-3-3-2-2-2-2-|
B|-3-3-3-3-3-3-3-3-3-3-3-3-3-3-3-----------------------------------|
   * * * * * * * * * * * * * * * * * * * * * * * * * * * * * * * *
e|-----------------------------------------------------------------|
b|-----------------------------------------------------------------|
G|-----------------------------------------------------------------|
D|-----------------------------------------------------------------|
A|-----------------------------------------------------------1---1-|
E|-0-0-0-0-0-0-0-0-0-0-0-0-0-0-0-0---------------------------1---1-|
B|---------------------------------1-1-1-1-1-1-1-1-1-1-1-1-1-1-1-1-|
   * * * * * * * * * * * * * * * * * * * * * * * * * * * * *   *
e|-----------------------------------------------------------------|
b|-----------------------------------------------------------------|
G|-----------------------------------------------------------------|
D|-----------------------------------------------------------------|
A|---------------------------------0-0-0-0-0-0-0-0-----------------|
E|-------------------------------3-----------------3-3-3-3-2-2-2-2-|
B|-3-3-3-3-3-3-3-3-3-3-3-3-3-3-3-----------------------------------|
   * * * * * * * * * * * * * * * * * * * * * * * * * * * * * * * *
Pre-Chorus 1
e|-----------------------------------------------------------------|
b|-----------------------------------------------------------------|
G|-----------------------------------------------------------------|
D|---------------------------------2---2---2---2---2---2-------2---|
A|-1---1---1---1---1---1-------1---2---2---2---2---2---2-------2---|
E|-1---1---1---1---1---1-------1---0-0-0-0-0-0-0-0-0-0-0-0-0-0-0-0-|
B|-1-1-1-1-1-1-1-1-1-1-1-1-1-1-1-1---------------------------------|
     *   *   *   *   *   * * *   *   *   *   *   *   *   * * *   *
e|-----------------------------------------------------------------|
b|-----------------------------------------------------------------|
G|-----------------------------------------------------------------|
D|-----------------------------------------------------------------|
A|-1---1---1---1---1---1-------1---5---5---5---5---2---------------|
E|-1---1---1---1---1---1-------1---5---5---5---5---2---------------|
B|-1-1-1-1-1-1-1-1-1-1-1-1-1-1-1-1-3-3-3-3-3-3-3-3-0---------------|
     *   *   *   *   *   * * *   *   *   *   *   *
Chorus 1
e|-----------------------------------------------------------------|
b|-----------------------------------------------------------------|
G|-------------------------------------------------2-----2---------|
D|-2-----2-----2-----------------------------------2-----2---------|
A|-2-----2-----2---3-----3-----3---5-----5-----5---0-0-0-0-0-0-----|
E|-0-0-0-0-0-0-0-0-3-----3-----3---5-----5-----5---------------3-2-|
B|-----------------1-1-1-1-1-1-1-1-3-3-3-3-3-3-3-3-----------------|
     * *   * *   *   * *   * *   *   * *   * *   *   * *   * * * *
e|-----------------------------------------------------------------|
b|-----------------------------------------------------------------|
G|-----------------------------------------------------------------|
D|-2-----2-----2---------------------------------------------------|
A|-2-----2-----2---3-----3-----3---5-----5-----5---2-----2-----2---|
E|-0-0-0-0-0-0-0-0-3-----3-----3---5-----5-----5---2-----2-----2---|
B|-----------------1-1-1-1-1-1-1-1-3-3-3-3-3-3-3-3-0-0-0-0-0-0-0-0-|
     * *   * *   *   * *   * *   *   * *   * *   *   * *   * *   *
e|-----------------------------------------------------------------|
b|-----------------------------------------------------------------|
G|-----------------------------------------------------------------|
D|-----------------2---2---2---2-----------------------------------|
A|-3---3---3---3---2---2---2---2---5---5---5-------2---2---2-------|
E|-3---3---3---3---0-0-0-0-0-0-0-0-5---5---5-------2---2---2-------|
B|-1-1-1-1-1-1-1-1-----------------3-3-3-3-3-3-3-3-0-0-0-0-0-0-0-0-|
     *   *   *   *   *   *   *   *   *   *   * * *   *   *   * * *
e|---------------------------------|
b|---------------------------------|
G|---------------------------------|
D|---------------------------------|
A|-3-----3-----3---5-----5---------|
E|-3-----3-----3---5-----5---------|
B|-1-1-1-1-1-1-1-1-3-3-3-3-3-3-3-3-|
     * *   * *   *   * *   * * * *
Interlude
e|---------------------------------|---------------------------------|
b|---------------------------------|---------------------------------|
G|---------------------------------|---------------------------------|
D|---------2-----2-----------------|---------2-----2-------------5---|
A|---------2-----2-----------------|---------2-----2---------5---5---|
E|---0-0---0-----0-----0---0-1-0---|---0-0---0-----0-----0---5---3---|
B|-3-----3-----3-----3---3-------3-|-3-----3-----3-----3---3-3-------|
   * * * *     *     * * * * * * *   * * * *     *     * * *
Verse 2
e|-----------------------------------------------------------------|
b|-----------------------------------------------------------------|
G|-----------------------------------------------------------------|
D|-----------------------------------------------------------------|
A|-----------------------------------------------------------------|
E|-0-0-0-0-0-0-0-0-0-0-0-0-0-0-0-0---------------------------------|
B|---------------------------------1-1-1-1-1-1-1-1-1-1-1-1-1-1-1-1-|
   * * * * * * * * * * * * * * * * * * * * * * * * * * * * * * * *
e|-----------------------------------------------------------------|
b|-----------------------------------------------------------------|
G|-----------------------------------------------------------------|
D|-----------------------------------------------------------------|
A|---------------------------------0-0-0-0-0-0-0-0-----------------|
E|-------------------------------3-----------------3-3-3-3-2-2-2-2-|
B|-3-3-3-3-3-3-3-3-3-3-3-3-3-3-3-----------------------------------|
   * * * * * * * * * * * * * * * * * * * * * * * * * * * * * * * *
e|-----------------------------------------------------------------|
b|-----------------------------------------------------------------|
G|-----------------------------------------------------------------|
D|-----------------------------------------------------------------|
A|-----------------------------------------------------------1---1-|
E|-0-0-0-0-0-0-0-0-0-0-0-0-0-0-0-0---------------------------1---1-|
B|---------------------------------1-1-1-1-1-1-1-1-1-1-1-1-1-1-1-1-|
   * * * * * * * * * * * * * * * * * * * * * * * * * * * * *   *
e|-----------------------------------------------------------------|
b|-----------------------------------------------------------------|
G|-----------------------------------------------------------------|
D|-----------------------------------------------------------------|
A|---------------------------------0-0-0-0-0-0-0-0-----------------|
E|-------------------------------3-----------------3-3-3-3-2-2-2-2-|
B|-3-3-3-3-3-3-3-3-3-3-3-3-3-3-3-----------------------------------|
   * * * * * * * * * * * * * * * * * * * * * * * * * * * * * * * *
Pre-Chorus 2
e|-----------------------------------------------------------------|
b|-----------------------------------------------------------------|
G|-----------------------------------------------------------------|
D|---------------------------------2---2---2---2---2---2-------2---|
A|-1---1---1---1---1---1-------1---2---2---2---2---2---2-------2---|
E|-1---1---1---1---1---1-------1---0-0-0-0-0-0-0-0-0-0-0-0-0-0-0-0-|
B|-1-1-1-1-1-1-1-1-1-1-1-1-1-1-1-1---------------------------------|
     *   *   *   *   *   * * *   *   *   *   *   *   *   * * *   *
e|-----------------------------------------------------------------|
b|-----------------------------------------------------------------|
G|-----------------------------------------------------------------|
D|-----------------------------------------------------------------|
A|-1---1---1---1---1---1-------1---5---5---5---5---2---2---2---2---|
E|-1---1---1---1---1---1-------1---5---5---5---5---2---2---2---2---|
B|-1-1-1-1-1-1-1-1-1-1-1-1-1-1-1-1-3-3-3-3-3-3-3-3-0-0-0-0-0-0-0-0-|
     *   *   *   *   *   * * *   *   *   *   *   *   *   *   *   *
Chorus 2
e|-----------------------------------------------------------------|
b|-----------------------------------------------------------------|
G|-------------------------------------------------2-----2---------|
D|-2-----2-----2-----------------------------------2-----2---------|
A|-2-----2-----2---3-----3-----3---5-----5-----5---0-0-0-0-0-0-----|
E|-0-0-0-0-0-0-0-0-3-----3-----3---5-----5-----5---------------3-2-|
B|-----------------1-1-1-1-1-1-1-1-3-3-3-3-3-3-3-3-----------------|
     * *   * *   *   * *   * *   *   * *   * *   *   * *   * * * *
e|-----------------------------------------------------------------|
b|-----------------------------------------------------------------|
G|-----------------------------------------------------------------|
D|-2-----2-----2---------------------------------------------------|
A|-2-----2-----2---3-----3-----3---5-----5-----5---2-----2-----2---|
E|-0-0-0-0-0-0-0-0-3-----3-----3---5-----5-----5---2-----2-----2---|
B|-----------------1-1-1-1-1-1-1-1-3-3-3-3-3-3-3-3-0-0-0-0-0-0-0-0-|
     * *   * *   *   * *   * *   *   * *   * *   *   * *   * *   *
e|-----------------------------------------------------------------|
b|-----------------------------------------------------------------|
G|-----------------------------------------------------------------|
D|-----------------2---2---2---2-----------------------------------|
A|-3---3---3---3---2---2---2---2---5---5---5-------2---2---2-------|
E|-3---3---3---3---0-0-0-0-0-0-0-0-5---5---5-------2---2---2-------|
B|-1-1-1-1-1-1-1-1-----------------3-3-3-3-3-3-3-3-0-0-0-0-0-0-0-0-|
     *   *   *   *   *   *   *   *   *   *   * * *   *   *   * * *
e|---------------------------------|
b|---------------------------------|
G|---------------------------------|
D|---------------------------------|
A|-3-----3-----3---5-----5---------|
E|-3-----3-----3---5-----5---------|
B|-1-1-1-1-1-1-1-1-3-3-3-3-3-3-3-3-|
     * *   * *   *   * *   * * * *
Bridge
e|--------------------------------------------------------------|
b|--------------------------------------------------------------|
G|--------------------------------------------------------------|
D|----------------------------------------------2---------------|
A|-3--------------5--------------2--------------2-(x12)----5----|
E|-3-(x16)--------5-(x16)--------2-(x16)--------0----------5(x4)|
B|-1--------------3--------------0-------------------------3----|

e|-------------------------------------------------|
b|-------------------------------------------------|
G|-------------------------------------------------|
D|-------------------------------2-----------------|
A|-3--------------5--------------2-(x8)--3----5----|
E|-3-(x16)--------5-(x16)--------0-------3(x4)5(x4)|
B|-1--------------3----------------------1----3----|

Interlude
e|---------------------------------|---------------------------------|
b|---------------------------------|---------------------------------|
G|---------------------------------|---------------------------------|
D|---------2-----2-----------------|---------2-----2---------3-------|
A|---------2-----2-----------------|---------2-----2---------3---5---|
E|---0-0---0-----0-----0---0-1-0---|---0-0---0-----0-----0---1---5---|
B|-3-----3-----3-----3---3-------3-|-3-----3-----3-----3---3-----3---|
   * * * *     *     * * * * * * *   * * * *     *     * * *
e|---------------------------------|---------------------------------|
b|---------------------------------|---------------------------------|
G|---------------------------------|---------------------------------|
D|---------2-----2-----------------|---------2-----2-------------5---|
A|---------2-----2-----------------|---------2-----2---------5---5---|
E|---0-0---0-----0-----0---0-1-0---|---0-0---0-----0-----0---5---3---|
B|-3-----3-----3-----3---3-------3-|-3-----3-----3-----3---3-3-------|
   * * * *     *     * * * * * * *   * * * *     *     * * *
Solo (Rhythm)
e|---------------------------------|---------------------------------|
b|---------------------------------|---------------------------------|
G|---------------------------------|---------------------------------|
D|---------2-----2-----------------|---------2-----2---------3-------|
A|---------2-----2-----------------|---------2-----2---------3---5---|
E|---0-0---0-----0-----0---0-1-0---|---0-0---0-----0-----0---1---5---|
B|-3-----3-----3-----3---3-------3-|-3-----3-----3-----3---3-----3---|
   * * * *     *     * * * * * * *   * * * *     *     * * *
e|---------------------------------|---------------------------------|
b|---------------------------------|---------------------------------|
G|---------------------------------|---------------------------------|
D|---------2-----2-----------------|---------2-----2-----------------|
A|---------2-----2-----------------|---------2-----2-2---------------|
E|---0-0---0-----0-----0---0-1-0---|---0-0---0-----0-2---------------|
B|-3-----3-----3-----3---3-------3-|-3-----3-----3---0---------------|
   * * * *     *     * * * * * * *   * * * *     *
Solo (Lead) - Check out my guitar pro tab for more accurate rhythms for this
e|-----------------------------------------------------------------------|
b|-----------------------------------------12b-------12---10---12--------|
G|-11b--11b--11b--11b--11b--11br-11---9----------------------------------|
D|-----------------------------------------------------------------------|
A|-----------------------------------------------------------------------|
E|-----------------------------------------------------------------------|
B|-----------------------------------------------------------------------|
                                                               ~
e|-------------------------------------------------|
b|-------12br--------------12-10-12----------12-13-|
G|-------------------------------------------------|
D|-------------------------------------------------|
A|-------------------------------------------------|
E|-------------------------------------------------|
B|-------------------------------------------------|

e|-------------------------------------------------|
b|-10-12----10----------------------------------10-|
G|-------12----11-12-9--11----9--11-12-9--11-12----|
D|-------------------------13----------------------|
A|-------------------------------------------------|
E|-------------------------------------------------|
B|-------------------------------------------------|

e|--------------------------------------------------|
b|-12-10-8------------------------------------------|
G|----------11-9--8---------------------------------|
D|-------------------10-9--7------------------------|
A|----------------------------10-9--7--5----/----13-|
E|--------------------------------------------------|
B|--------------------------------------------------|

e|-------------------------------------------------|
b|----------14-------14----14-------12-------11----|
G|-------------------------------------------------|
D|-------------------------------------------------|
A|-------------------------------------------------|
E|-------------------------------------------------|
B|-------------------------------------------------|

e|-12-12-12-12-14-14-14-14-15-15-15-15-15----14-14-|
b|-------------------------------------------------|
G|-------------------------------------------------|
D|-------------------------------------------------|
A|-------------------------------------------------|
E|-------------------------------------------------|
B|-------------------------------------------------|

e|-14--15--14--------14----17----15----14----------15----14----------14----------------14--15--17--|
b|-------------17----------------------------17----------------17----------16----17----------------|
G|-------------------------------------------------------------------------------------------------|
D|-------------------------------------------------------------------------------------------------|
A|-------------------------------------------------------------------------------------------------|
E|-------------------------------------------------------------------------------------------------|
B|-------------------------------------------------------------------------------------------------|

e|-19----------------------------------------------|
b|-------------------------------------------------|
G|-------------------------------------------------|
D|-------------------------------------------------|
A|-------------------------------------------------|
E|-------------------------------------------------|
B|-------------------------------------------------|

Chorus 3
e|-----------------------------------------------------------------|
b|-----------------------------------------------------------------|
G|-----------------------------------------------------------------|
D|-----------------2---2---2---2-----------------------------------|
A|-3---3---3---3---2---2---2---2---5---5---5-------2---2---2-------|
E|-3---3---3---3---0-0-0-0-0-0-0-0-5---5---5-------2---2---2-------|
B|-1-1-1-1-1-1-1-1-----------------3-3-3-3-3-3-3-3-0-0-0-0-0-0-0-0-|
     *   *   *   *   *   *   *   *   *   *   * * *   *   *   * * *
Chorus 4
e|-----------------------------------------------------------------|
b|-----------------------------------------------------------------|
G|-------------------------------------------------2-----2---------|
D|-2-----2-----2-----------------------------------2-----2---------|
A|-2-----2-----2---3-----3-----3---5-----5-----5---0-0-0-0-0-0-----|
E|-0-0-0-0-0-0-0-0-3-----3-----3---5-----5-----5---------------3-2-|
B|-----------------1-1-1-1-1-1-1-1-3-3-3-3-3-3-3-3-----------------|
     * *   * *   *   * *   * *   *   * *   * *   *   * *   * * * *
e|-----------------------------------------------------------------|
b|-----------------------------------------------------------------|
G|-----------------------------------------------------------------|
D|-2-----2-----2---------------------------------------------------|
A|-2-----2-----2---3-----3-----3---5-----5-----5---2-----2-----2---|
E|-0-0-0-0-0-0-0-0-3-----3-----3---5-----5-----5---2-----2-----2---|
B|-----------------1-1-1-1-1-1-1-1-3-3-3-3-3-3-3-3-0-0-0-0-0-0-0-0-|
     * *   * *   *   * *   * *   *   * *   * *   *   * *   * *   *
e|-----------------------------------------------------------------|
b|-----------------------------------------------------------------|
G|-----------------------------------------------------------------|
D|-----------------2---2---2---2-----------------------------------|
A|-3---3---3---3---2---2---2---2---5---5---5-------2---2---2-------|
E|-3---3---3---3---0-0-0-0-0-0-0-0-5---5---5-------2---2---2-------|
B|-1-1-1-1-1-1-1-1-----------------3-3-3-3-3-3-3-3-0-0-0-0-0-0-0-0-|
     *   *   *   *   *   *   *   *   *   *   * * *   *   *   * * *
e|---------------------------------|
b|---------------------------------|
G|---------------------------------|
D|---------------------------------|
A|-3-----3-----3---5-----5---------|
E|-3-----3-----3---5-----5---------|
B|-1-1-1-1-1-1-1-1-3-3-3-3-3-3-3-3-|
     * *   * *   *   * *   * * * *
Outro Part 1 (x2)
e|-----------------------------------------------------------------|
b|-----------------------------------------------------------------|
G|-----------------------------------------------------------------|
D|-2-----2-----2---------------------------------------------------|
A|-2-----2-----2---3-----3-----3---5-----5-----5---2-----2-----2---|
E|-0-0-0-0-0-0-0-0-3-----3-----3---5-----5-----5---2-----2-----2---|
B|-----------------1-1-1-1-1-1-1-1-3-3-3-3-3-3-3-3-0-0-0-0-0-0-0-0-|
     * *   * *   *   * *   * *   *   * *   * *   *   * *   * *   *
Outro Part 2 (x2)
e|-----------------------------------------------------------------|
b|-----------------------------------------------------------------|
G|-----------------------------------------------------------------|
D|-2---2---2---2---------------------------------------------------|
A|-2---2---2---2---3---3---3---3---5---5---5---5---2---2---2---2---|
E|-0-0-0-0-0-0-0-0-3---3---3---3---5---5---5---5---2---2---2---2---|
B|-----------------1-1-1-1-1-1-1-1-3-3-3-3-3-3-3-3-0-0-0-0-0-0-0-0-|
     *   *   *   *   *   *   *   *   *   *   *   *   *   *   *   *
Thanks for reading the tab, please rate and comment corrections!

************************************

| *   palm mute
| /   slide up
| \   slide down
| h   hammer-on
| p   pull-off
| ~   vibrato
| +   harmonic
| x   Mute note
| b   Bend
| pb  Pre-bend
| br  Bend release
| pbr Pre-bend release
| brb Bend release bend

************************************

            
            
Suggest correction
Creating personal tab
Creating personal tab
You can edit any tab online and save it as your Personal.

You can edit, replace or remove any tab part or add personal notes – all changes will be seen only by you.

Personal tabs can be accessed anytime from any device, even offline.
Learn more »
Give kudos to tab author, rate the tab!
1 2 3 4 5
comments
print report bad tab
guest
You may want to rate the tab now too:
select rating
Wanna post a correction for this tab? Suggest correction