Oops, an error
Loading. Please wait.

The Howling bass

version 1
version 1

Whole song

Interactive

5,606 views 1 this week
2 commentsread comments
1 2 3 4 5
x 3
add to favorites
×
Save as Personal and add changes to this tab that will be seen only by you. Learn more ›
×
You can save this tab as Personal to edit and correct it or add notes. All changes will be seen only by you. Learn more »
launch autoscroll
font size
0
reset
guitar tuner
edit
Autoscroll
slow
fast
+/-
esc
set tempo
stop
The Howling By Within Temptation.
5 String tuned down 2 semi tones: ADGCF
By Bertacus

Note: ~ represents hold note for this tab


INTRO

F|--------------|
C|--------------|
G|--------------|
D|-44~4~44~-----|
A|--------------| X8


VERSE

F|-------------|------------|------------|-------------|
C|-------------|------------|------------|-------------|
G|-------------|------------|------------|-------------|
D|-44~4~44~----|------------|44~4~44~----|44~4~44~-----|
A|-------------|------------|------------|-------------| X2


PRE CHORUS

F|-------------|------------|------------|-------------|
C|-------------|------------|------------|-------------|
G|-------------|------------|------------|-------------|
D|-------------|------------|44~4~44~----|44~4~44~-----|
A|-55~5~555~55~|55~5~555~77~|------------|-------------|

F|-------------|------------|------------|-------------|
C|-------------|------------|------------|-------------|
G|-------------|------------|------------|-------------|
D|-------------|------------|------------|-------------|
A|-55~5~555~55~|55~5~555~55~|44~4~444~44~|4~~~---------|


CHORUS

F|-------------|------------|------------|-------------|
C|-------------|------------|------------|-------------|
G|-------------|------------|------------|-------------|
D|-44~4~44-----|44~4~44-----|22~2~22-----|-------------|
A|-------------|------------|------------|22~2~22------|

F|-------------|------------|------------|-------------|
C|-------------|------------|------------|-------------|
G|-------------|------------|------------|-------------|
D|-44~4~44-----|------------|------------|-------------|
A|-------------|55~5~55-----|44~4~44~~~~~|44~4~44~~~~~-|

F|-------------|------------|------------|-------------|
C|-------------|------------|------------|-------------|
G|-------------|------------|------------|-------------|
D|-44~4~44-----|44~4~44-----|22~2~22-----|-------------|
A|-------------|------------|------------|22~2~22------|

F|-------------|------------|------------|-------------|
C|-------------|------------|------------|-------------|
G|-------------|------------|------------|-------------|
D|-44~4~44-----|------------|------------|-------------|
A|-------------|55~5~55-----|44~4~44~~~~~|44~4~44~~~~~-|

PRE VERSE

F|--------------|
C|--------------|
G|--------------|
D|-44~4~44~-----|
A|--------------| X4


(VERSE)

(PRE CHORUS)

(CHORUS)

BRIDGE

F|-------------|------------|------------|-------------|
C|-------------|------------|------------|-------------|
G|-------------|------------|------------|-------------|
D|-------------|------------|------------|-------------|
A|-02~2-202~2-2|02~2-202~2-2|02~2-202~2-2|02~2-202~2-2-| X2

F|-------------|------------|------------|-------------|
C|-------------|------------|------------|-------------|
G|-------------|------------|------------|-------------|
D|-------------|------------|------------|-------------|
A|-24~4-424~4-4|24~4-424~4-4|24~4-424~4-4|24~4-424~4-4-|

F|-------------|------------|------------|-------------|
C|-------------|------------|------------|-------------|
G|-------------|------------|------------|-------------|
D|-------------|------------|------------|-------------|
A|-02~2-202~2-2|02~2-202~2-2|02~2-202~2-2|02~2-202~2-2-|

F|-------------|------------|------------|-------------|
C|-------------|------------|------------|-------------|
G|-------------|------------|------------|-------------|
D|-------------|------------|44~4~44~----|44~4~44~-----|
A|-5~~~~~~~~~~4|5~~~~~~~~777|------------|-------------|

F|-------------|------------|------------|-------------|
C|-------------|------------|------------|-------------|
G|-------------|------------|------------|-------------|
D|-------------|------------|------------|-------------|
A|-5~~~~~~~~~~5|5~~~~~~~~~~~|4~~~~~~~~~~~|~~~~~~~~~~~~-|

F|-------------|------------|------------|-------------|     (Note*)
C|-6~~~~~~~~~~~|4~~~~~~~~~~~|2~~~~~~~~~~~|1~~~~~~~~~~~-|
G|-------------|------------|------------|-------------|
D|-------------|------------|------------|-------------|
A|-------------|------------|------------|-------------| X2

(CHORUS)

(PRE VERSE) X2

END

F|--------------|
C|--------------|
G|--------------|
D|-4~~~~~~~~~~~-|
A|--------------|


INTRO
VERSE
PRE CHORUS
CHORUS
PRE VERSE
VERSE
PRE CHORUS
CHORUS
BRIDGE
CHORUS
PRE VERSE X2
END


(Note*: Strange repeat/delay effect used on this part.Can just play each note 8 times, 
quieter, or each note just once)
Suggest correction
Creating personal tab
Creating personal tab
You can edit any tab online and save it as your Personal.

You can edit, replace or remove any tab part or add personal notes – all changes will be seen only by you.

Personal tabs can be accessed anytime from any device, even offline.
Learn more »
Give kudos to tab author, rate the tab!
1 2 3 4 5
comments
print report bad tab
2 comments total.
0 reply
tabmaniack 10 Oct 12, 2008 10:28 AM

hey can someone post the guitar on guitar pro pleese
that would be a great help lol awsome song wanna lear it badly :)
xP cheerz

0 reply
MelVinMaSsaCrE 112 Sep 17, 2012 07:59 AM

Great job, although the later part of the bridge needs to be an octave lower.

guest
You may want to rate the tab now too:
select rating
Wanna post a correction for this tab? Suggest correction