Oops, an error
Loading. Please wait.

What Have You Done bass

version 2
version 2

Whole song

Interactive

5,657 views 1 this week
2 commentsread comments
1 2 3 4 5
2 more votes to show rating
add to favorites
×
Save as Personal and add changes to this tab that will be seen only by you. Learn more ›
×
You can save this tab as Personal to edit and correct it or add notes. All changes will be seen only by you. Learn more »
launch autoscroll
font size
0
reset
guitar tuner
backing track
0:00
0:00
edit
Autoscroll
slow
fast
+/-
esc
set tempo
stop
Author
Difficulty
This is the original/rock version of the song.
It is played on a 5 string tuned down a whole step (however it can be translated onto a 
5 string, or a 4 string tuned BEAD).
Not sure of the pattern on the bridge but pretty sure the notes are right.
~ represent held notes on this tab.


INTRO 1

F|----------|
C|----------|
G|----------|
D|-44444444-|
A|----------| X8


INTRO 2

F|------------------|
C|------------------|
G|-------------121--|
D|-244444442444---2-|
A|------------------| X4


VERSE

F|----------------------------------|
C|----------------------------------|
G|----------------------------------|
D|-4~~44-4~~44-4~440~~00-0~~00-0~22-|
A|----------------------------------| X3

F|----------------------------------|
C|----------------------------------|
G|----------------------------------|
D|-0~~00-0~~00-0~002~~22-2~~22-2~22-|
A|----------------------------------|


CHORUS

F|----------------------------------|
C|----------------------------------|
G|----------------------------------|
D|-4~~44~----------2~~22~-----------|
A|-------5~~55~5~55------2~~22~2222-|

F|----------------------------------|
C|----------------------------------|
G|----------------------------------|
D|-4~~44~----------2~~22~2~~22~2222-|
A|-------5~~55~5~55-----------------|

F|----------------------------------|
C|----------------------------------|
G|----------------------------------|
D|-4~~44~----------2~~22~-----------|
A|-------5~~55~5~55------2~~22~2222-|

F|----------------------------------|
C|----------------------------------|
G|----------------------------------|
D|-0~~00~0~~00~00002~~22~2~~22~2222-|
A|----------------------------------|


BRIDGE

F|----------------------------------|
C|----------------------------------|
G|----------------------------------|
D|-0~~00~0~~00~00002~~22~2~~22~2222-|
A|----------------------------------|

F|----------------------------------|
C|----------------------------------|
G|----------------------------------|
D|-----------------4~~~4~4~~~4~~42~-|
A|-4~~44~4~~44~4444-----------------|

F|----------------------------------|
C|----------------------------------|
G|----------------------------------|
D|-0~~00~0~~00~00002~~22~2~~22~2222-|
A|----------------------------------|

F|----------------------------------|
C|----------------------------------|
G|----------------------------------|
D|----------------------------------|
A|-4~~44~4~~44~44444~~44~4~~44~4~~~-|


End

F|----------|
C|----------|
G|----------|
D|-4~~~~~~~-|
A|----------|


INTRO 1
INTRO 2
VERSE
CHORUS
INTRO 2
VERSE
CHORUS
INTRO 2
BRIDGE
CHORUS X2
END

            
            
Suggest correction
Creating personal tab
Creating personal tab
You can edit any tab online and save it as your Personal.

You can edit, replace or remove any tab part or add personal notes – all changes will be seen only by you.

Personal tabs can be accessed anytime from any device, even offline.
Learn more »
Give kudos to tab author, rate the tab!
1 2 3 4 5
comments
print report bad tab
2 comments total.
0 reply
Chill 02 271 Nov 05, 2007 05:57 AM

why tune a whole step down if you're not going to use anything below B?

0 reply
bertacus 303 Dec 16, 2008 02:13 PM

Thats just the tunning I use, and I think its easier to play like that. Also I'm pretty sure thats how Jeroen plays it.

guest
You may want to rate the tab now too:
select rating
Wanna post a correction for this tab? Suggest correction