Oops, an error
Loading. Please wait.

Arsenal Tab

version 1
version 1

Whole song

Interactive

5,855 views 6 this week
no commentswrite comment
1 2 3 4 5
excellent!
x 1
add to favorites
launch autoscroll
font size
0
reset
how to read this tab
guitar tuner
Tab Pro tools
  • play this tab
  • loop segment
  • change instrument
  • show fretboard
  • metronome
Autoscroll
slow
fast
+/-
esc
set tempo
stop
Contributor
Difficulty
advanced
Arsenal- Within the Ruins
Tabbed by Shane Lyons
icedogs41@yahoo.com

*-natural harmonic
s-slide to
h-hammer
p-pull

Drop G# Tuning
A#
F
C#
G#
D#
G#

HAve Fun!

                   x5
e|------------|--------------------|-----------------------------------------|
B|------------|--------------------|-------------------------------6h9p6-----|
G|------------|-----------6-11-10-6|-----------6-11-10-6-10-6s10-6------764--|
D|--3h6p3h4---|-----------3-8--7--3|-----------3-8--7--3--7-3s7--3---------7-|
A|44-------547|43476434343---------|43476434343------------------------------|
E|44-------547|43476434343---------|43476434343------------------------------|

e|--------------------------------------------------|
B|-----------------------------------6h9p6----------|
G|-------------------611-10-6-10-6-10-----764--6s10-|
D|-------------------3-8-7--3-7--3s7---------7-3s7--|
A|----------------434-------------------------------|
E|3333333333333333434-------------------------------|

e|--------------------------------------------------------------------------|
B|-----------------------6h9p6----------------------------------------------|
G|---6--11-10-6-10-6s10-6-----764-------------------------------------------|
D|---3--8--7--3-7--3s7--3--------7------------------------------------------|
A|434-----------------------------333333333333-4347674----------------------|
E|434-----------------------------333333333333-4347674----------------------|

e|--------------------------------------------------------------------------|
B|----------------7-6-2-----------------------------------------7-6-2-------|
G|----------------x-x-x-----------------------------------------x-x-x-------|
D|----------------7-6-2-----------------------------------------7-6-2-------|
A|44444444444-4444-----44444444444-444-77446633-44444444444-4444------------|
E|44444444444-4444-----44444444444-444-77446633-44444444444-4444------------|
                            x2
e|-----------------------|-----------|------------|
B|-----------------------|-----------|------------|
G|----------------11-10-6|-----------|------------|
D|-----------------8--7-3|3h4p3-3h6p4|--3h6p3h4---|
A|4-4-4-4444-74634-------|-----5-----|44-------547|
E|4-4-4-4444-74634-------|-----------|44-------547|
  LEAD x2
e|--------------------------------------------------------------------------|
B|9h10p9--9h12p9h10-9h10p9--9h12p9h10-9h10p9--9h12p9h10-10-6-7-9------------|
G|------11----------------11----------------11------------------------------|
D|--------------------------------------------------------------------------|
A|--------------------------------------------------------------------------|
E|--------------------------------------------------------------------------|

e|--------------------------------------------------------------------------|
B|9h10p9--9h12p9h10-9h10p9--9h12p9h10-9h10p9--9h12p9h10-10-9-7-6------------|
G|------11----------------11----------------11------------------------------|
D|--------------------------------------------------------------------------|
A|--------------------------------------------------------------------------|
E|--------------------------------------------------------------------------|
                                                           x2
e|------------------------------------9|7h8p7---------------7h8p7------------|
B|----10-9-7-6-----------------10-9-7--|-----10-9-7-6-10-9-7-----10-9-7-6-10-|
G|-------------------------------------|-------------------------------------|
D|-------------------------------------|-------------------------------------|
A|4347---------------------------------|-------------------------------------|
E|4347---------4347643434343434--------|-------------------------------------|

e|---|------------------7h8p7---------------7h8p7---------------------------|
B|9-6|-----------------------10-9-7-6-10-9-7-----10-9-7-6-10-6--------------|
G|---|----------------------------------------------------------------------|
D|---|----------------------------------------------------------------------|
A|---|0/-434764343437434----------------------------------------------------|
E|---|0/-434764343437434----------------------------------------------------|

e|14tp-----------------14tp-----------------|9h10p9-------------------------|
B|----14tp-10tp-9tp--------14tp-10tp-9tp----|------10-9h10p9----------------|
G|-----------------11tp-----------------10tp|---------------11-10h11p10-----|
D|------------------------------------------|--------------------------12---|
A|------------------------------------------|-------------------------------|
E|------------------------------------------|-------------------------------|

e|--------------------------------5t----------------------------------------|
B|-------------------------9h10h12--5t--------------------------------------|
G|--------10h11h13-10h11h13-------------------------------------------------|
D|11h12h16------------------------------------------------------------------|
A|--------------------------------------------------------------------------|
E|--------------------------------------------------------------------------|
                                            (Alternate as you see fit)
e|--------------------------------------------------------------------------|
B|--------------------------------------------------------------------------|
G|----------------------11-10-----------------------------------------------|
D|-7-6-3---3-7-11-------------12-11-----------------------------------------|
A|4------4--4----4444444--------4--4444444----------------------------------|
E|4---------4----4444444--------4--4444444----------------------------------|

e|--------------------------------------------------------------------------|
B|--------------------------------------------------------------------------|
G|10-10-12-13-10-10-11-6----------------------------------------------------|
D|--------------------------------------------------------------------------|
A|--------------------------------------------------------------------------|
E|--------------------------------------------------------------------------|
      (ALternate these two)
e|---------9--|---------9--|-------------------------------|----------------|
B|-----9-10---|-----9-10---|-------------------------------|----------------|
G|10-11-----11|10-11-----10|10101010-----------------------|----------------|
D|------------|------------|--------11111111-66666-7777----|----------------|
A|------------|------------|---------------------------8888|----------------|
E|------------|------------|-------------------------------|----------------|

e|-----------9--------------------------------------9-----------------------|
B|------9-10-----------------------------------9-10---10-9-7----------------|
G|10-11-------10-11-11-11----------------10-11--------------10-6-7-11-------|
D|--------------------------------------------------------------------------|
A|-----------------------444444-44-444444-----------------------------------|
E|-----------------------444444-44-444444-----------------------------------|

e|---------9h10p9-----------------------------------------------------------|
B|---------------10-9-------------12-12*-12*-12*----------------------------|
G|--------------------11-10-13-14-------------------------------------------|
D|--------------------------------------------------------------------------|
A|444444444-------------------------------------444444-44-444444------------|
E|444444444-------------------------------------444444-44-444444------------|
              x2
e|-----------9-----------9----------9---------9-----------------------------|
B|------9-10--------9-10-------9-10-------9-10--9h10p9----------------------|
G|10-11--------10-11------10-11------10-11------------11-7-10---------------|
D|--------------------------------------------------------------------------|
A|--------------------------------------------------------------------------|
E|--------------------------------------------------------------------------|

e|-----------|----------------------------------------|----------------------|
B|-----------|----------------------------------------|----------------------|
G|-----------|----------------------------------------|----------------------|
D|------3h6-4|-3-------------------------3-6-4--------|3--------------364----|
A|----4------|--4-3-3-4----------------4--------------|-4334---------4---444-|
E|3-4--------|---------3-333333333-3h4--------44444444|-----333333-34----444-|
comments
We did not receive enough feedback on this tab! Please rate:
print report bad tab
1 2 3 4 5
I want to post or [tab]
guest
You may want to rate the tab now too:
select rating
Please do not post tabs as comments. Select "correction" instead!