Oops, an error
Loading. Please wait.

Victory Tab

version 1
version 1

Whole song

Interactive

4,427 views 1 this week
no commentswrite comment
1 2 3 4 5
excellent!
x 9
add to favorites
launch autoscroll
font size
0
reset
how to read this tab
guitar tuner
Tab Pro tools
  • play this tab
  • loop segment
  • change instrument
  • show fretboard
  • metronome
×
Best way to learn
"Victory"
Autoscroll
slow
fast
+/-
esc
set tempo
stop
Contributor
Difficulty
advanced
"Victory"

BY: WITHIN THE RUINS

Transcribed by Joe Keller
jkguitar@comcast.net

Such a Fun song to play, and its badass and catchy ^_^
I just had to do a Tab!

My Video on how to play:
http://www.youtube.com/watch?v=X67IPZxMQeg&feature=channel

Please Do Not Copy without Permission.

THANKS AND ENJOY!

Tuning
G# D# G# C# F A#


you know the deal..

h= hammer on
p= pull off
/ \= slides
*= harmonic
^= bend
s= speed pick
~= vibr.

ect....


	[ INTRO CHORDS ]
|------------------------------|
|------------------------------|
|------------------------------|
|--7---9---11----12---11---6---|
|--4---7---7-----9----9----4---|
|--4---6---7-----9----9----3---|

|----------------------------------------------------|
|----------------------------------------------------|
|----------------------------------------------------| Play this bar 2x
|-------------7-----9-----11------12-----11-----6----|
|-4-3-4-7-6-3-4-----7-----7-------9------9------4----|
|-4-3-4-7-6-3---4s----6s-----7s------9s-----9s----3s-|

|------------------------------------------------------------------------------|
|------------------------------------------------------------------------------|
|------------------------------------------------------------------------------|
|-------------7--------9--------11----------------12--------11--------6--------|
|-4-3-4-7-6-3-4-444444-7-666-66-7--777-777-777-77-9--999999-9--999999-4-333-33-|
|-4-3-4-7-6-3---444444---666-66----777-777-777-77----999999----999999---333-33-|

 --------------------------------------------------------------------------|
 --------------------------------------------------------------------------|
 --------------------------------------------------------------------------|
 ----------------7--------9--------11----------------12--------11--------6-|
 -3/4-4-7\6-6-3--4-444444-7-666666-7--777-777-777-77-9--999999-9--999999-4-|
 -3/4-4-7\6-6-3----444444---666666----777-777-777-77----999999----999999-3-|
__________________________________________________________________
	[ Background Guitar ]
 |---------------------------------|
 |---------------------------------|
 |--14---13---9------7---11---18---|
 |---------------------------------|
 |--12---11---7------5---9----16---|
 |---------------------------------|
__________________________________________________________________
  ------------------------------------------------------------|
  ------------------------------------------------------------|
  ------------------------------------------------------------|
  -------------7--3--6----444-4--444-4-44444-4-4-44--444444-6-|
  -4-3-4-7-6-3-4--0--4----444-4--444-4-44444-4-4-44--444444-4-|
  -4-3-4-7-6-3-4--0--3----444-4--444-4-44444-4-4-44--444444-3-|

  ------------------------------------------------------|
  ------------------------------------------------------|
  ------------------------------------------------------|
  -----------------44-4--444-4-44444-4-4-444--444444-6--|
  -4-3-4-7-6-4-3/4-44-4--444-4-44444-4-4-444--444444-4--|
  -4-3-4-7-6-4-3/4-44-4--444-4-44444-4-4-444--444444-3--|

  ------------------------------------------------------|
  ------------------------------------------------------|
  ------------------------------------------------------|
  -------------2h4-00-0--000-0-00000-0-0-000--000000-2--|
  -4-3-4-7-6-4-2h4-00-0--000-0-00000-0-0-000--000000-2--|
  -4-3-4-7-6-4-----00-0--000-0-00000-0-0-000--000000-2--|

 -------------------------------------------------------------------------|
 -------------------------------------------------------------------------|
 -------------------------------------------------------------------------|
 -------------2h4-00-0--000-0-00000-0-0-000--------------6----------------|
 -4-3-4-7-6-4-2h4-00-0--000-0-00000-0-0-000--4-3-4-7-6-4-4---4-3-4-7-6-3--|
 -4-3-4-7-6-4-----00-0--000-0-00000-0-0-000--4-3-4-7-6-4-3---4-3-4-7-6-3--|


	[		THE END			]
comments
print report bad tab
I want to post or [tab]
guest
You may want to rate the tab now too:
select rating
Please do not post tabs as comments. Select "correction" instead!