Oops, an error
Loading. Please wait.

Black And Yellow Tab

version 1
version 1

Whole song

Interactive

Video

61,622 views 24 this week
no commentswrite comment
1 2 3 4 5
x 6
add to favorites
launch autoscroll
font size
0
reset
how to read this tab
guitar tuner
Autoscroll
slow
fast
+/-
esc
set tempo
stop
Help us to improve Ultimate-Guitar.com Take our survey!
×
Author
Tabbers playing skills
beginner ++
-------------------------------------------------------------------------------
                             Black and Yellow - Wiz Khalifa
-------------------------------------------------------------------------------
Credit to Jeffrey Thomas

Tuning: Drop D (DADGBe)

Intro

Alternate pick 16th notes

    1  e  +  a   2  e  +  a   3  e + a  4  e  + a 

e|--13-10-12-10--13-10-12-10--13--12----13---12---|
b|------------------------------13--13----13---13-|
g|------------------------------------------------|
d|------------------------------------------------|
a|------------------------------------------------|
d|------------------------------------------------|

   1  e  +  a  2 e  +  a   4 e +  a

e|-13----------13----------13--10-12--| | Repeat until Verse
b|---10-11-10----10-11-10----10-------|o|
g|------------------------------------| |
d|------------------------------------| |
a|------------------------------------|o|
d|------------------------------------| |

Verse at 0:35

   1 e + a   2 e +  a  3  e + a  4 e + a

e|-----------------------------------------|
b|-----------------------------------------|
g|-10-7-9-7--10-7-9-7--10---9----10--9-----|
d|------------------------10--10---10--10--|
a|-----------------------------------------|
d|-----------------------------------------|

   1 e + a  2 e + a  3 e + a  4  e + a

e|---------------------------------------| |
b|---------------------------------------|o|
g|-10-------10--------10-------10---7-9--| |
d|---7-8-7-----7-8-7----7-8-7-----7------| |
a|---------------------------------------|o|
d|---------------------------------------| |


Bridge at 2:22

                         __alt repeat 1. 3.   __2.
                        |                    |
e|----------------------|------------------| |-----------------------| |
b|----------------------|------------------|o|-----------------------|o|
g|----------------------|------------------| |-----------------------| |
d|----------------------|------------------| |-----------------------| |
a|-5-5-3----------------|------------------|o|-----------------------|o|
d|-------5-3-(3)-0-(0)--|-3-5-(5)-5-7-(7)--| |-3-5-(5)-5-7-(7)-10-7--| |

   1 2 e + a     +        1 a     3 a          1 a     3 a     +  a      



   
   1e+a  2e+a 3e+a 4e+a      1 e + a  2 e + a  3 e + a  4 e + a 

e|--------------------------|------------------------------------| |
b|--------------------------|------------------------------------| |
g|-10-9--10-9--10-9--10-9---|-10--9----10--9----10--9----10--9---|o|
d|---8-8---8-8---8-8---8-8--|---10-10----10-10----10-10----10-10-| |
a|--------------------------|------------------------------------|o|
d|--------------------------|------------------------------------| |



************************************

| /   slide up
| \   slide down
| h   hammer-on
| p   pull-off
| ~   vibrato
| +   harmonic
| x   Mute note
| b   Bend
| pb  Pre-bend
| br  Bend release
| pbr Pre-bend release
| brb Bend release bend

************************************
Suggest correction
comments
print report bad tab
guest
You may want to rate the tab now too:
select rating
Wanna post a correction for this tab? Suggest correction