Oops, an error
Loading. Please wait.

Roll Up Chords

61,168 views 36 this week
4 commentsread comments
1 2 3 4 5
x 5
add to favorites
launch autoscroll
font size
0
reset
transpose
0
reset
display chords
guitar tuner
Autoscroll
slow
fast
+/-
esc
set tempo
stop
Help us to improve Ultimate-Guitar.com Take our survey!
×
Author
Difficulty
novice
Artist : WIZ KHALIFA
Song : ROLL UP

Tuning : Standard
Lyrics : directlyrics.com
Key : Eb

Tabbed by : JBW

Listen for the chord changes, If a part repeats i don't have chords over the words
In the actual song there are a lot of arpeggios and there is a little melody from 
the Eb to the Ab at times (If you are playing piano :)

Chords Used : Eb Fm Gm Ab Bb Cm

e|---6----1-----3-----4----6-----3------------------------------------------|
B|---8----1-----3-----4----6-----4------------------------------------------|
G|---8----1-----3-----5----7-----5------------------------------------------|
D|---8----3-----5-----6----8-----5------------------------------------------|
A|---6----3-----5-----6----8-----3------------------------------------------|
E|--------1-----3-----4----6------------------------------------------------|


Chords Used with capo 1st fret : D Em F#m G A Bm  (Its up to whichever you prefer to play)

e|----2------0-----2-----3-----0-----2------------------------------------|
B|----3------0-----2-----3-----2-----3------------------------------------|
G|----2------0-----2-----0-----2-----4------------------------------------|
D|----0------2-----4-----0-----2-----4------------------------------------|
A|-----------2-----4-----2-----0-----2------------------------------------|
E|-----------0-----2-----3------------------------------------------------|


Each chord shown will have the chord used with capo in ()

Eb (D)  Fm (Em)  Gm (F#m)  Ab (G)  Bb (A)  Cm (Bm)


Intro : Cm Bb Eb Ab 

Verse 1
   Cm        Bb
Its your anniversary isn't it
   Eb         Ab 
And your man aint acting right
   Cm             Bb                Eb                 Ab
So you packing your Domiar luggage up calling my cell phone, try and catch a flight

You know one thing straight, I'll be there girl whenever you call me

When you at home thats your man, soon as you land you say thats all me

But shit aint all g with him no more, you aint entertained

Since I meet you a couple months ago you aint been the same
Cm         Bb       
Not saying I'm the richest man alive but I'm in the game
    Ab  (Hold out)
As long as you keep it 100 Imma spend this change,

[Chorus]
Cm    
Whenever you need me
Bb
Whenever want me,
Eb                              Ab
You know you can call me, I'll be there shortly
Don't care what your friends say, cause they dont know me
I can be your best friend, and you be my homie
I aint gonna flex, I'm not gonna front
You know if I ball, then we all gonna stunt
Send her my way, she aint gotta hold up
Whenever you call baby I roll up, I roll up, I roll up
                                       Cm         Bb
Whenever you call baby I roll up, I roll up, I roll up
      Eb (Hold Out)
Whenever you call baby I roll up


Bridge
Gm
No matter where I am
Fm
No matter where you are
I'll be there when its over baby
Cause I was there from the start
No matter if I'm near
Don't matter if your far
All you do is pick the phone up lady
 Ab (I think he plays this chord right before going back into the chorus)
And I'll be there when you call
Suggest correction
comments
print report bad tab
4 comments total. Showing first comments.
+1 reply
treesrpeopl2 10 Jul 21, 2011 03:14 PM

It's actually the Cm scale... the relative major is Eb but it starts with Cm and in most contemporary music's first note is the key which would be the first indication of key

+1 reply
teslaband 62 Feb 16, 2012 05:45 PM

it is easier in a half step up that would be novince

this is more of advanced be cause these chords arnt as formiliar

0 reply
benwest05 192 Feb 25, 2012 02:11 PM

The key is in Eb. The relative minor (Cm) would refer to that it is the 6th of the Eb. :)
As far as soloing, Cm would work awesome ;) Eb would be too "major" lol

And for the chord issue, It will be good for you and for any one to learn chords that aren't as familiar :)

guest
You may want to rate the tab now too:
select rating
Wanna post a correction for this tab? Suggest correction