Oops, an error
Loading. Please wait.
We have Chord Pro version of See You Again.
It's the closest thing you can get to the original song and it has interactive parts. Check out the tab »
×
1,459 views 1 this week
no commentswrite comment
1 2 3 4 5
3 more votes to show rating
add to favorites
×
Save as Personal and add changes to this tab that will be seen only by you. Learn more ›
×
You can save this tab as Personal to edit and correct it or add notes. All changes will be seen only by you. Learn more »
launch autoscroll
font size
0
reset
how to read this tab
guitar tuner
edit
Autoscroll
slow
fast
+/-
esc
set tempo
stop
-------------------------------------------------------------------------------
          See You Again(Fingerstyle) - Wiz Khalifa ft. Charlie Puth
-------------------------------------------------------------------------------
Tabbed by: Mats Cornelissen
E-mail: matshoi@hotmail.com

Tuning: Standard 
Capo 3rd fred

First 10 seconds only piano
Intro(Charlie Puth)
e|-------0h2p0------0------------------------0-0-2-0--------------------------|
B|---0-3-0------3------------------0----0-3--0--------3-0---------------------|
G|-0-----0------0-------0--0h2-2-0-0h2-------0--------0---2-0h2p0-------------|
D|--------------0----------2-------0------------------0-----------------------|
A|-------------------------3--------------------------------------------------|
E|-------0------3------------------3---------0--------3-----------------------|

e|------------------0-0h3/5-5h7--5/3-0-3--3h5-5/3-3---0-3--3h5-5/3-3----------|
B|----------0---0h3-0-------0---------------------0----------------0----------|
G|-0h2-2--0-0h2-----0-------0-------------0-------0--------0-------0----------|
D|-2--------0---0-------------------------------------------------------------|
A|-3--------------------------------------3----------------3------------------|
E|----------3-------0-------3---------------------3----------------3----------|

Verse(Wiz Khalifa)
e|--------------------------------------------------------------0-------------|
B|------0----0---0---0h3p0--------------0----------------0---0--0-------------|
G|------0h2--0h2-0h2-------2-0-----0--2-0-------0--0-----0-2----2-0-0---0-2-0-|
D|-----------2---0-----------2---2------0-------2-----2--2--------2---2-----0-| 2X
A|-x-xx----------------------3-------------x-xx-------------------3-----------|
E|-x-xx-0-0--0---3-------------x--------3--x-xx-0------------3--------------3-|
   D DU                                    D DU

How can we not talk about family....
e|----0---0--------------------------------------------------------------------|
B|----0---0-----------0----------------------------0---------------------------|
G|----0---0-------0---0-0-0-0-0---0-0---0-0-0-0------0-0-0-0-0---0-0---0-0-0-0-|
D|----2--2-----2------------------------------2------------------------------2-|
A|-xx-2X-2------------3--------------------------------------------------------|
E|-xx-0X-03--3------------------X-----3-------3-X----0---------X-----3-------3-|
   DU UD UD
e|-----------------------------------------------------------------------------|
B|-----0-----------------0h3---------------------------------------------------|
G|---0-0---0-0--0-0-0--0-------------------------------------------------------|
D|-2----------------2----------------------------------------------------------|
A|-----3-----------------------------------------------------------------------|
E|-------X----3----------------------------------------------------------------|

Intro/Chorus (Charlie Puth)
Repeat Intro

oooh..oooh.. 
e|--3-2--0-------3-2--0-2-0----------------------------------------------------------|
B|-------0----3-------1-----3-0----------|-0-0---|------0-3-0------------------------|
G|-------0----0-------0-------0------0h2-|-0---2-|------------2-0-0-0-2-0------------|
D|------------0-------2-------0--0h2-----|-------|-(3X)---------0---0---0(Hold 2 sec)|
A|----------x---------3------------------|-------|--------------------0--------------|
E|-------0--x-3--3------------3----------|-0-----|----------------0------------------|
                      U
Repeat Verse (Wiz Khalifa)

Repeat How can we not talk about family...

Brige So let the light guide your way...
e|-0-----0-----------------------0-2p0-----------------------------------------------|
B|-0-----0---0-------0-----0-0-3-0-----3-0-----------0-0-----------------------------|
G|-0-----0-----2-2-0-0-----0-----0-------0-2-2p0-2-2---0-----------------------------|
D|-------------------0-----0-------------0-------------------------------------------|
A|-3-----3-----3---------------------------------3-----3-----------------------------|
E|----x--------------3---x-3-----0-------3-------------------------------------------|

Repeat Intro/Chorus (Charlie Puth)

Repeat oooh..oooh.. (2X)


************************************

| /   slide up
| \   slide down
| h   hammer-on
| p   pull-off
| ~   vibrato
| +   harmonic
| x   Mute note
| b   Bend
| pb  Pre-bend
| br  Bend release
| pbr Pre-bend release
| brb Bend release bend

************************************

            
            
Suggest correction
Creating personal tab
Creating personal tab
You can edit any tab online and save it as your Personal.

You can edit, replace or remove any tab part or add personal notes – all changes will be seen only by you.

Personal tabs can be accessed anytime from any device, even offline.
Learn more »
Give kudos to tab author, rate the tab!
1 2 3 4 5
comments
print report bad tab
guest
You may want to rate the tab now too:
select rating
Wanna post a correction for this tab? Suggest correction