Oops, an error
Loading. Please wait.
We have Chord Pro version of See You Again.
It's the closest thing you can get to the original song and it has interactive parts. Check out the tab »
×
1,351 views 6 this week
1 commentread comment
1 2 3 4 5
1 last vote to show rating
add to favorites
×
Save as Personal and add changes to this tab that will be seen only by you. Learn more ›
×
You can save this tab as Personal to edit and correct it or add notes. All changes will be seen only by you. Learn more »
launch autoscroll
font size
0
reset
how to read this tab
guitar tuner
edit
Autoscroll
slow
fast
+/-
esc
set tempo
stop
Capo fret 3

[Intro]
e|---------------------------------------------------------------------------|
B|----------------------0-----------------------------0----------------------|
G|------2--0------0--2-----2--0--2-----2--0-----0--2-----2--0--2-----2--0----|
D|---0--------0---0-----------------0--------0--0-----------------0--------0-|
A|---------------------------------------------------------------------------|
E|---0--------3---------------------0--------3--------------------0--------3-|

e|--------------------------------|
B|---------0----------------------|
G|---0--2-----2--0--2-----2--0----|
D|---0-----------------0--------0-|
A|--------------------------------|
E|---------------------0--------3-|

[Chorus]
e|----------0--2--0-----0--------------------|
B|----0--3--0--------3-------------------0---|
G|-0--------0--------0-----0--0--2--2-0--0--2|
D|-------------------0--------2----------0---|
A|----------------------------3--------------|
E|----------0--------3-------------------3---|

e|---------0--0--2--0-----------------------------------------------0--0--2--|
B|---0--3--0-----------3--0-----------------------0--------0--0--3--0--------|
G|---------0-----------0-----2--0--2--0--0--2--2-----0--------------0--------|
D|---------------------0-----------------2-----------0--2-----0--------------|
A|---------------------------------------3-----------------------------------|
E|---------0-----------3-----------------------------3--------------0--------|

e|---0-----0-----------------------------0--0--3--5--5--7--5--3--0--3--3--5--|
B|------3--------------------0-----0--3--0-----------0-----------------------|
G|------0-----0--0--2--2--0--0--2--------0-----------0-----------------0-----|
D|------0--------2-----------0-----0-----------------------------------------|
A|---------------3-----------------------------------------------------3-----|
E|------3--------------------3-----------0-----------3-----------------------|

e|---5--3--3--0--0--3--3--5--5--3--3-----------------------------------------|
B|---------0-----------------------0-----------------------------------------|
G|---------0-----------0-----------0-----------------------------------------|
D|---------------------------------------------------------------------------|
A|---------------------3-----------------------------------------------------|
E|---------3-----------------------3-----------------------------------------|

[Verse]
e|---------------------------------------------------------------------------|
B|---0-----0-----0-----0--3--0-----------------0--------------0-----0-----0--|
G|---0--2-----2-----0-----------2--0--0--0--2--------------0--0--2-----2-----|
D|---2--------------------------------------------------------2--------------|
A|---------------------------------3-----------------------------------------|
E|---0--------3-----------------------------------3--3--x-----0--------3-----|

e|---------------------------------------------------------------------------|
B|------0--3--0-----------------------------------0-----0-----0-----0--3--0--|
G|---0-----------2--0--0--0--0--2--0--------------0--2-----2-----0-----------|
D|---------------------------------------------0--2--------------------------|
A|------------------3--------------------------------------------------------|
E|------------------------------------3--3--x-----0--------3-----------------|

e|---------------------------------------------------------------------------|
B|---------------------0--------------0-----0-----0-----0--3--0--------------|
G|---2--0--0--0--0--2--------------0--0--2-----2-----0-----------2--0--0--0--|
D|------------------------------------2--------------------------------------|
A|------3-----------------------------------------------------------3--------|
E|------------------------3--3--x-----0--------3-----------------------------|

e|--------------------------|
B|--------------------------|
G|---0--2--0----------------|
D|--------------------------|
A|--------------------------|
E|------------3-------------|

[Chorus]
e|----------0--2--0-----0--------------------|
B|----0--3--0--------3-------------------0---|
G|-0--------0--------0-----0--0--2--2-0--0--2|
D|-------------------0--------2----------0---|
A|----------------------------3--------------|
E|----------0--------3-------------------3---|

e|---------0--0--2--0-----------------------------------------------0--0--2--|
B|---0--3--0-----------3--0-----------------------0--------0--0--3--0--------|
G|---------0-----------0-----2--0--2--0--0--2--2-----0--------------0--------|
D|---------------------0-----------------2-----------0--2-----0--------------|
A|---------------------------------------3-----------------------------------|
E|---------0-----------3-----------------------------3--------------0--------|

e|---0-----0-----------------------------0--0--3--5--5--7--5--3--0--3--3--5--|
B|------3--------------------0-----0--3--0-----------0-----------------------|
G|------0-----0--0--2--2--0--0--2--------0-----------0-----------------0-----|
D|------0--------2-----------0-----0-----------------------------------------|
A|---------------3-----------------------------------------------------3-----|
E|------3--------------------3-----------0-----------3-----------------------|

e|---5--3--3--0--0--3--3--5--5--3--3-----------------------------------------|
B|---------0-----------------------0-----------------------------------------|
G|---------0-----------0-----------0-----------------------------------------|
D|---------------------------------------------------------------------------|
A|---------------------3-----------------------------------------------------|
E|---------3-----------------------3-----------------------------------------|

OH OH OH BIT
e|---3--2--0--------3--2--0--0--2--0-------|
B|---3--3--0--3-----3--3--3-----------3----|
G|---0-----0--0-----0-----------------0----|
D|------------0----------------------------|
A|------------------------3----------------|
E|---------0--3--3--------------------3----|

[Verse]
e|---------------------------------------------------------------------------|
B|---0-----0-----0-----0--3--0-----------------0--------------0-----0-----0--|
G|---0--2-----2-----0-----------2--0--0--0--2--------------0--0--2-----2-----|
D|---2--------------------------------------------------------2--------------|
A|---------------------------------3-----------------------------------------|
E|---0--------3-----------------------------------3--3--x-----0--------3-----|

e|---------------------------------------------------------------------------|
B|------0--3--0-----------------------------------0-----0-----0-----0--3--0--|
G|---0-----------2--0--0--0--0--2--0--------------0--2-----2-----0-----------|
D|---------------------------------------------0--2--------------------------|
A|------------------3--------------------------------------------------------|
E|------------------------------------3--3--x-----0--------3-----------------|

e|---------------------------------------------------------------------------|
B|---------------------0--------------0-----0-----0-----0--3--0--------------|
G|---2--0--0--0--0--2--------------0--0--2-----2-----0-----------2--0--0--0--|
D|------------------------------------2--------------------------------------|
A|------3-----------------------------------------------------------3--------|
E|------------------------3--3--x-----0--------3-----------------------------|

e|--------------------------|
B|--------------------------|
G|---0--2--0----------------|
D|--------------------------|
A|--------------------------|
E|------------3-------------|

[Bridge]
e|------------0-----------------------0--0--2--0--------------0--------0--3--|
B|------0--3--0--3--------------------0--0--------3--3--0--3-----0--3--0-----|
G|---0--------0--0--0--0--2-----------0-----------0--------0-----0-----0-----|
D|---------------------------------------------------------0-----0-----------|
A|---------------3--------------------------------3--------------------------|
E|------------0--------3-----x--x--0-----------------------3-----3-----0-----|

e|---3--5--3-----3--5--7--5--3--2--3--2--0--2--3---|
B|------------------------------------------0--3---|
G|------------------------------------------0------|
D|-------------------------------------------------|
A|---------------------------------------------3---|
E|------------0-----------------------------3------|

[Chorus]
e|----------0--2--0-----0--------------------|
B|----0--3--0--------3-------------------0---|
G|-0--------0--------0-----0--0--2--2-0--0--2|
D|-------------------0--------2----------0---|
A|----------------------------3--------------|
E|----------0--------3-------------------3---|

e|---------0--0--2--0-----------------------------------------------0--0--2--|
B|---0--3--0-----------3--0-----------------------0--------0--0--3--0--------|
G|---------0-----------0-----2--0--2--0--0--2--2-----0--------------0--------|
D|---------------------0-----------------2-----------0--2-----0--------------|
A|---------------------------------------3-----------------------------------|
E|---------0-----------3-----------------------------3--------------0--------|

e|---0-----0-----------------------------0--0--3--5--5--7--5--3--0--3--3--5--|
B|------3--------------------0-----0--3--0-----------0-----------------------|
G|------0-----0--0--2--2--0--0--2--------0-----------0-----------------0-----|
D|------0--------2-----------0-----0-----------------------------------------|
A|---------------3-----------------------------------------------------3-----|
E|------3--------------------3-----------0-----------3-----------------------|

e|---5--3--3--0--0--3--3--5--5--3--3-----------------------------------------|
B|---------0-----------------------0-----------------------------------------|
G|---------0-----------0-----------0-----------------------------------------|
D|---------------------------------------------------------------------------|
A|---------------------3-----------------------------------------------------|
E|---------3-----------------------3-----------------------------------------|


************************************

| x  Dead note

************************************

            
            
Suggest correction
Creating personal tab
Creating personal tab
You can edit any tab online and save it as your Personal.

You can edit, replace or remove any tab part or add personal notes – all changes will be seen only by you.

Personal tabs can be accessed anytime from any device, even offline.
Learn more »
Give kudos to tab author, rate the tab!
1 2 3 4 5
comments
print report bad tab
1 comment total.
0 reply
Charlottelcoope 130 Apr 01, 2016 12:40 PM

good tab.

guest
Wanna post a correction for this tab? Suggest correction