Oops, an error
Loading. Please wait.

When Im Gone Chords

6,193 views 3 this week
no commentswrite comment
1 2 3 4 5
x 5
add to favorites
launch autoscroll
font size
0
reset
transpose
0
reset
display chords
guitar tuner
Autoscroll
slow
fast
+/-
esc
set tempo
stop
Help us to improve Ultimate-Guitar.com Take our survey!
×
Author
Difficulty
Capo
novice
2nd fret
What's up, like every other one on here, this is my first tab and 100% on it.
This is one of my absolute favorite songs by Wiz, one of the rap songs that actually has 
some meaning behind it, enjoy!

Capo 2nd Fret
Chords:
    Em  G   C
e|--0---0---0--|
B|--0---3---3--|
G|--0---0---0--|
D|--2---0---2--|
A|--2---2---3--|
E|--0---3---x--|

Intro (Piano)
e|-0---0-2-3--7--3-------0--0--------0--0--------2-3--|
B|-0----------5--5---0-3----0----0-3----0--0----------|
G|-0----------0--0----------0-----------0----0--------|
D|-2------------------------2-----------2------2------|
A|-2------------------------3-----------3-------------|
E|-0------------------------x-----------x-------------|

e|-0-(0)--0-2-3--7-------0--0--------0--0--------2-3--|
B|-0-(0)---------5---0-3----0--0-0-3----0--0----------|
G|-0-(0)---------0----------0-----------0----0--------|
D|-2------------------------2-----------2------2------|
A|-2------------------------3-----------3-------------|
E|-0------------------------x-----------x-------------| (x2)

e|----------------3--------------------------|
B|----3-0-----------3----------------3-------|
G|--------0-----2--------0-4--0-2-4----4-2-0-|
D|---2---------0--------2--------------------|
A|--2---------2--------3---------------------|
E|-0---------3-------------------------------| (x2)

          Em                                   G
And they say all I rap about is bitches and champagne,
                                                     C
You would too if every night you seen the same thing
                                      C
Money wall to wall, young famous nigga, spend it all,

when you die you can't take it with ya
Em
Bottle of Rose if I'm drinking with ya
G
Cause most niggas is broke their bank is injured
C
Then bitches gonna ride with who they think's a winner
C
And I'll be smiling in case they take a picture
Em                                          G
Oh, I'm smoking weed drinking liquor make a hundred

on a show spend it all on my niggas
C
When I go shopping I tell them pick one
C
Cause they was with me when nobody seen a vision
Em                                      G
Always about my business don't play the cards

I talked to the niggas who dealed them, uhh
C
Royal flush, now look up them niggas and baby girl you see us, yeah

[Chorus]
                 Em                      G
I'm gonna spend it all why wait for another day
                    C
I'ma take all this money I own and blow it all away
                               Em                   G
Cause I can't take it when I'm gone, gone, gone, gone
                           C
No I can't take it when I'm gone, gone, gone (x2)

[Verse 2]
Hella hoes in my car, they wanna feel that maximum speed
Never had an absence of weed
Tired of being at the bar, everything Louie V,
Plus the most exclusive treat in my jar
Making my bank, spending it all
and that expensive shit you paid for, she had it on
She taking it off, most of these niggas just talk and taking it off
Back in the day money was short, I'm making it taller
you know what I mean, some say it's a problem
Blowings my greens, not saving my collards
No NBA, they say I'm a baller
Live for today, it's not like my father

[Chorus]
I'm gonna spend it all why wait for another day
I'ma take all this money I own and blow it all away
Cause I can't take it when I'm gone, gone, gone, gone
No I can't take it when I'm gone, gone, gone
I'm gonna spend it all why wait for another day
I'ma take all this money I own and blow it all away
Cause I can't take it when I'm gone, gone, gone, gone
No I can't take it when I'm gone, gone, gone, gone, gone.
Suggest correction
comments
print report bad tab
guest
You may want to rate the tab now too:
select rating
Wanna post a correction for this tab? Suggest correction