Oops, an error
Loading. Please wait.

Delinquent Bass Tab

1,594 views 1 this week
2 commentsread comments
1 2 3 4 5
x 3
add to favorites
launch autoscroll
font size
0
reset
guitar tuner
Autoscroll
slow
fast
+/-
esc
set tempo
stop
Help us to improve Ultimate-Guitar.com Take our survey!
×
Author
Tuning
E A D G B E
Drop C

(0:00 – 0:10)
“Visitor Come To My...”

|--------------------------------------|
|--------------------------------------|
|--------------------------------------|
|-0~------------------00-00-0000-00-00-|

(0:10 – 0:14)
“I’m On The Verge...”

|-----------------------------|
|-----------------------------|
|-----------------------------|
|-00-00-0000-00-0000-00-00----|

(0:14 – 0:21)
“A Vagabond...”

|------------------------------------------------------------|
|------------------------------------------------------------|
|------------------------------------------------------------|
|-00-00-00--000-000-00-00-00-00-00--000-000-00-00-0----------|


(0:34 - 0:40)
"I'd hate to..."
|-------------------------------------------------|
|-------------------------------------------------|
|-------------------------------------------------|
|-0--7~--7/333-33333--------0--7~--7/333-3333-----|



(0:40 – 0:53)
“Rain On Your Parade...”

|--------------------------------------------------------------|
|--------------------------------------------------------------|
|--------------------------------------------------------------|
|-7777777777777777-33333333333333-5555555555555555555555555555-|



(0:54 – 1:07)
“Who Am I To Pretend...”

|--------------------------------------------|
|--------------------------------------------|
|--------------------------------------------|
|-33333333333333-77777777777777-5~-----------|


(1:07 – 1:20)
“Floor...”

|---(Guitar fades in don't play with it)-----------------------------------|
|--------------------------------------------------------------------------|
|--------------------------------------------------------------------------|
|-1-0-0----0-1-0-1-0000-0-0000-1-0-0----0-1-0-1-00-0--3-1-0-3-1-0----------|


(1:20 – 1:27)
“At My Knees, Praying...”
|-------------------------------------------------------|
|----------------------------------------------------7*-|
|-------------------------------------------------------|
|1-0-0----0-1-0-1-0000-0-0000-1-0-0----0-1-0-1-00-0-----|

(1:27 – 1:40)
“I’ve Exposed...”

|------------------------------------------------------------------------|
|------------------------------------------------------------------------|
|------------------------------------------------------------------------|
|-1~-11~----~1-111~--1~-~----------00-00---0000-0000---00-00---0000-0000-|


(1:40 – 1:56)
“Most Vulnerable State...”

|------------------------------------------------------------------------------|
|------------------------------------------------------------------------------|
|------------------------------------------------------------------------------|
|-8~----8--5b---00000--00---0-00-0~---00--00000--00000--00--0—00-0~---00-00000-|

(1:56 – 2:12)
“See shame in yourself...”

|--------------------------------------------------------------------------|
|--------------------------------------------------------------------------|
|--------------------------------------------------------------------------|
|-00000--00--0--00-0~---00-00000---00000--00--0-00-0~---00-00000---8~---5b-|

(2:12 – 2:26)
“I Was The King...”

|---------------------------------------------------------------------------------------|
|---------------------------------------------------------------------------------------|
|---------------------------------------------------------------------------------------|
|-000--0-0-000--0-000-000---0-00-000--0-0-0-0--000-0-0-000--0-000-000--0-00-000---------|
 

(2:26 – 2:53)
“Behind Every Mask...”

|-------------------------------------------------------------------| (x2)
|-------------------------------------------------------------------|
|-------------------------------------------------------------------|
|-77777777777777-55555555555555-3333333333333333333333333333--------|


(2:53 – 2:27)
“Own Sins...”

|--------------|   END
|--------------|
|--------------|
|-7~-----------|
Suggest correction
Give kudos to tab author, rate the tab!
1 2 3 4 5
comments
print report bad tab
2 comments total.
0 reply
Lolorenz11 73 Apr 24, 2014 10:43 PM

That guy who gave this a 1 star... what a dick lmao.

0 reply
Lolorenz11 73 Apr 24, 2014 10:51 PM

Oh and to fill that gap at like 0:34 you probs forgot to tab or just couldn't figure out.

(0:34 - 0:40)
|------------------------------------------------|
|------------------------------------------------|
|------------------------------------------------|
|-0--7~--7/333-3333--------0--7~--7/333-3333-----|

guest
You may want to rate the tab now too:
select rating
Wanna post a correction for this tab? Suggest correction