Oops, an error
Loading. Please wait.

Desolate The Conductor Tab

7,013 views 1 this week
2 commentsread comments
1 2 3 4 5
please rate
add to favorites
launch autoscroll
font size
0
reset
how to read this tab
guitar tuner
Autoscroll
slow
fast
+/-
esc
set tempo
stop
Help us to improve Ultimate-Guitar.com Take our survey!
×
Tuning
D A D G B E
Woe, Is Me
Desolate the Conductor (Acoustic)

figured out the tabs to their acoustic cover of Desolate.
See how strumming is done here in their video.
http://www.youtube.com/watch?v=rWgMjOWWohU



e-------------------------------------------------|
b-------------------------------------------------|
g-------------------------------------------------|
d---5----6----1----3------------------------------|
a---5----6----1----3------------------------------|
d---3----6----1----1------------------------------|

it's basically the same thing over and over in the same order just different strumming patterns.

enjoy!
Suggest correction
Give kudos to tab author, rate the tab!
1 2 3 4 5
comments
print report bad tab
2 comments total.
0 reply
xkbx 41 wrote on August 20 2011, 12:26 am

e-------------- maybe a little variation but these are the
b-------------- correct chords in the song
g-5--3------3--
d-5--3--6---3--
a-3--1--6---1--
d-------6------

0 reply
xkbx 41 wrote on August 20 2011, 12:27 am

e-------------- maybe a little variation but these are the
b-------------- correct chords in the song
g-5--3------3--
d-5--3--6---3--
a-3--1--6---1--
d-------6------

guest
You may want to rate the tab now too:
select rating
Wanna post a correction for this tab? Suggest correction