Oops, an error
Loading. Please wait.

Fame Demise Acoustic Tab

version 2
version 2

Whole song

18,747 views 1 this week
no commentswrite comment
1 2 3 4 5
excellent!
x 7
add to favorites
launch autoscroll
font size
0
reset
how to read this tab
guitar tuner
Autoscroll
slow
fast
+/-
esc
set tempo
stop
Help us to improve Ultimate-Guitar.com Take our survey!
×
Author
Difficulty
Tuning
intermediate
D A D G B E
-----------------------------------------------------------------------------
                             Woe, Is Me - Fame > Demise(Acoustic) 
-----------------------------------------------------------------------------
                                                                      
Tabbed by: JohnThatCreepyG
Email: Dinosaur_love@hotmail.com
I watched the video that the song comes from so I'm sure its about 99% accurate 

Tuning: Drop D                     


     Intro/Chorus:

     Your..     Colors..     To get..
e|-----------|---------|---------|
B|-----------|---------|---------|
G|-----------|---------|---------|
D|-----5-----|-----8---|-----7---|
A|-----1-----|-----5---|-----3---|
D|-----1-----|-----5---|-----3---|

    Have fun..     to..    now..
e|-----------|---------|---------|
B|-----------|---------|---------|
G|-----------|---------|---------|
D|-----5-----|-----8---|-----7---|
A|-----1-----|-----5---|-----3---|
D|-----1-----|-----5---|-----3---|

       Verse1:
                    
e|-----------|-----------|x4]--------|x4]--------|x4]--------|x4]
B|-----------|-----------|-----------|-----------|-----------|
G|-----------|-----------|-----------|-----------|-----------|
D|-----8-8-x-|--8--8-8-x-|--7--7-7-x-|--5--5-5-x-|--7--7-7-x-|
A|-----5-5-x-|--5--5-5-x-|--3--3-3-x-|--1--1-1-x-|--3--3-3-x-|
D|-----5-5-x-|--5--5-5-x-|--3--3-3-x-|--1--1-1-x-|--3--3-3-x-|

    almost the same as above but without the muting at the end of the chords
e|-----------|----------|x4]-------|x4]-------|x4]---------------|
B|-----------|----------|----------|----------|------------------|
G|-----------|----------|----------|----------|------------------|
D|-----8-----|--8-8--8--|--7-7--7--|--5-5--5--|--7-7--7-555555-5~|
A|-----5-----|--5-5--5--|--3-3--3--|--1-1--1--|--3-3--3-333333-1~|
D|-----5-----|--5-5--5--|--3-3--3--|--1-1--1--|--3-3--3-222222-1~|

I'll call This the pre-chorus I guess :P  12s not 1s and 2s!

e|-----------------------------|------------------|-------------|
B|-----------------------------|------------------|-------------|
G|-----------------------------|------------------|-------------|
D|--8--8-8--8--8-8--8-8--8--8-8|--12--12-12--12-12|--7--7-7--7-7|
A|--5--5-5--5--5-5--5-5--5--5-5|---8---8--8---8--8|--3--3-3--3-3|
D|--5--5-5--5--5-5--5-5--5--5-5|---8---8--8---8--8|--3--3-3--3-3|

e|-------------------------|----------------|-----------|
B|-------------------------|----------------|-----------|
G|-------------------------|----------------|-----------|
D|--8-888--8-888--8-888--88|--12-121212-1212|--7--777-77|
A|--5-555--5-555--5-555--55|---8--8-8-8--8-8|--3--333-33|
D|--5-555--5-555--5-555--55|---8--8-8-8--8-8|--3--333-33|
                                             v this is fastv
e|-------------------------|----------------|---------------|
B|-------------------------|----------------|---------------|
G|-------------------------|----------------|---------------|
D|--8-888--8-888--8-888--88|--12-121212-1212|--3-3--xxx-xxxx|
A|--5-555--5-555--5-555--55|---8--8-8-8--8-8|--3-3--xxx-xxxx|
D|--5-555--5-555--5-555--55|---8--8-8-8--8-8|--3-3--xxx-xxxx|

Jump straight to the Chorus:

e|-------------|---------|---------------------|
B|-------------|---------|---------------------|
G|-------------|---------|---------------------|
D|--5-55--5-55-|--8-88-88|-7-77--7-77--7-77-xxx|
A|--1-11--1-11-|--5-55-55|-3-33--3-33--3-33-xxx|
D|--1-11--1-11-|--5-55-55|-3-33--3-33--3-33-xxx|

e|-----------|---------|--------------------|
B|-----------|---------|--------------------|
G|-----------|---------|--------------------|
D|--5-55--55-|--8-88-88|-7-77--7-77--5-55-55|
A|--1-11--11-|--5-55-55|-3-33--3-33--3-33-33|
D|--1-11--11-|--5-55-55|-3-33--3-33--2-22-22|

  Final Verse:

e|---------|---------|-----------------|Allx4]
B|---------|---------|-----------------|
G|---------|---------|-----------------|
D|--8-88888|--5-55555|-7-77777--7-77777|
A|--5-55555|--1-11111|-3-33333--3-33333|
D|--5-55555|--1-11111|-3-33333--3-33333|

   Chorus/outro:

     Your..     Colors..     To get..
e|-----------|---------|---------|
B|-----------|---------|---------|
G|-----------|---------|---------|
D|-----5-----|-----8---|-----7---|
A|-----1-----|-----5---|-----3---|
D|-----1-----|-----5---|-----3---|

    Have fun..     to..    now..
e|-----------|---------|---------|
B|-----------|---------|---------|
G|-----------|---------|---------|
D|-----5-----|-----8---|-----7---|
A|-----1-----|-----5---|-----3---|
D|-----1-----|-----5---|-----3---|

And heres the Lyrics for you :)

Your true colours are starting to get loud,
Have fun, praying to your Grey god now

All that you taught me to be
was a moper, a dreamer that only refused to dream
Oh save it please, my voice is peaking through your speakers
and Im speaking just to show you the way
How could you, shelter me out? Im much older now
You shatter like a beaker, when I only want to show you the way

I'll build my way out of your demise,
These dreams are my castles, not the walls you built up around me
whoa, when I look at my watch and I know, time is, time is gold

Your true colours are starting to get loud,
Have fun, praying to your grey god now

This war dont determine whose right,
this war just determines whose left standing tonight
Stop handing me lights,
I can see what you are in the dark just fine
Im not blind, Im bending the blinds
peaking through to get a glimpse of your anguishing life
Youre hiding like a vampire, here comes the strife
This wont hurt me cause I get a thrill...

Your true colours are starting to get loud,
Have fun, praying to your grey god now 

Thats it~ :)
Suggest correction
comments
print report bad tab
guest
You may want to rate the tab now too:
select rating
Wanna post a correction for this tab? Suggest correction