Oops, an error
Loading. Please wait.

Fame Over Demise Tab

version 1
version 1

Acoustic

Whole song

Interactive

15,460 views 60 this week
3 commentsread comments
1 2 3 4 5
x 14
add to favorites
launch autoscroll
font size
0
reset
how to read this tab
guitar tuner
×
Best way to learn
"Fame Over Demise"
Autoscroll
slow
fast
+/-
esc
set tempo
stop
Author
Difficulty
Tuning
  follow
novice
D A D G B E
Drop D

[Intro] 
(0:09 - 0:23)
E|----------|
B|----------|
G|----------| (x2)
D|-5--8--7--|
A|-1--5--3--|
D|-1--5--3--|

[Verse] 
(0:24 - 0:57)
E|-------------|     E|----------|
B|-------------|     B|----------|
G|-------------|(x2) G|----------|
D|-8--7--5--7--|     D|----2--0--|
A|-5--3--1--3--|     A|----3--0--|
D|-5--3--1--3--|     D|----2--0--|

[Chorus] 
(1:01 - 1:22)
E|---------------------------------|
B|---------------------------------|
G|---------------------------------|
D|-8--12--7--8--12--7--8--12--3-3--|
A|-5--8---3--5--8---3--5--8---3-3--|
D|-5--8---3--5--8---3--5--8---3-3--|

(1:22 - 1:37)
Back to the same intro pattern with the same first chord of the end of verse (the 232 one)

[Verse 2] 
(1:40 - 2:07)
E|----------|
B|----------|
G|----------| (x4)
D|-8--5--7--|
A|-5--1--3--|
D|-5--1--3--|

[Outro]
E|----------|
B|----------|
G|----------| (x2)
D|-5--8--7--|
A|-1--5--3--|
D|-1--5--3--|
Suggest correction
comments
print report bad tab
3 comments total.
0 reply
GraceTheWrong 110 Oct 29, 2013 04:24 AM

Anything I can do instead of the 1,1,5, 3,3,7, and 5,5,8? My hands are kinda small haha

guest
You may want to rate the tab now too:
select rating
Wanna post a correction for this tab? Suggest correction