Oops, an error
Loading. Please wait.

Last Friday Night Tgif Tab

14,549 views 3 this week
1 commentread comment
1 2 3 4 5
x 6
add to favorites
launch autoscroll
font size
0
reset
how to read this tab
guitar tuner
Autoscroll
slow
fast
+/-
esc
set tempo
stop
Help us to improve Ultimate-Guitar.com Take our survey!
×
Difficulty
Tuning
novice
A# F A# D# G C
-----------------------------------------------------------------------------
                     Last Friday Night (TGIF) - Woe, Is Me
-----------------------------------------------------------------------------
Tabbed by: Cristian Corbett
Email: corbettcr@wsdstudent.net

here is my cover of this song as well: http://www.youtube.com/watch?v=R7YKFNl8QZA

Tuning: Drop A#

Verse 1 (repeat as many times as you need to)
C |-----------------------------------------------------|
G |-----------------------------------------------------|
D#|-----------------------------------------------------|
A#|-----------------------------------------------------|
F |-----------------------------------------------------|
A#|--0000--0--12b---0-0-0-0-12b--0000--0--10b-----------|


Chorus
C |-----------------------------------------------------|
G |-----------------------------------------------------|
D#|---7--4-----------------------7--4-------------------|
A#|---7--4-----------------------7--4---4--2------------|
F |---5--2-----------------------5--2---4--2------------|
A#|---------000-000-000-000-000---------4--2------------|

Post-Chorus (hold these notes)
C |--------------------------------|
G |--------------------------------|
D#|----7--4------------------------|
A#|----7--4--4--2------------------|
F |----5--2--4--2------------------|
A#|----------4--2------------------|

Verse 2
C |----------------------------------------------------------|
G |----------------------------------------------------------|
D#|-----7-7--77-7----4-4--444--------------------------------|
A#|-----7-7--77-7----4-4--444----4-4--44-4----2-2--22-2------|
F |-----5-5--55-5----2-2--222----4-4--44-4----2-2--22-2------|
A#|------------------------------4-4--44-4----2-2--22-2------|
                         ...

Repeat the riff from verse 1

Repeat chorus and post chorus

Pre Breakdown thing (2:29)
C |-------------------------------|
G |-------------------------------|
D#|-------------------------------|
A#|---0~--------------------------|
F |---0~--------------------------|
A#|---0~--------------------------|

Breakdown
"MOVE!"
C |-----------------------------------------------------|
G |-----------------------------------------------------|
D#|-----------------------------------------------------|
A#|-----------------------------------------------------|
F |-0000-00------1----------0000-00------1--------------|
A#|-1111-11----1---1-4-1----1111-11----1---4-3-1--------|

2:59
C |-------------------------------------------------|
G |-------------------------------------------------|
D#|-------------------------------------------------|
A#|-------------------------------------------------|
F |-00-00-0-00----00-00-00-00-----00-00-0-00--------|
A#|-11-11-1-11----11-11-11-11-----11-11-1-11---00---|

C |--------------------------------------------------------|
G |--------------------------------------------------------|
D#|--------------------------------------------------------|
A#|--------------------------------------------------------|
F |-00-00-0-00----00-00-00-00-----00-00-0-00---0-0-0-------|
A#|-11-11-1-11----11-11-11-11-----11-11-1-11---1-1-1-------|

C |-------------------------------------------------------------------------|
G |-------------------------------------------------------------------------|
D#|-------------------------------------------------------------------------|
A#|-------------------------------------------------------------------------|
F#|----0-00---0-0------0-00------00----00------0-00---0-0----0-00------12---|
A#|-1b-0-00---0-0--1b--0-00---1b-00-1b-00---1b-0-00---0-0-1b-0-00----12---0-|

C |---------------------------------------------------------------------|
G |---------------------------------------------------------------------|
D#|---------------------------------------------------------------------|
A#|---------------------------------------------------------------------|
F |----0-00---0-0------0-00------00----00------0-00---0-0----6666\5555--|
A#|-1b-0-00---0-0--1b--0-00---1b-00-1b-00---1b-0-00---0-0-1b------------|

Repeat Chorus

Repeat The "MOVE!" Breakdown

and that's it! 
this is my first actual tab, so constructive criticism is much appreciated :)

************************************

| /   slide up
| \   slide down
| h   hammer-on
| p   pull-off
| ~   vibrato
| +   harmonic
| x   Mute note
| b   Bend
| pb  Pre-bend
| br  Bend release
| pbr Pre-bend release
| brb Bend release bend

************************************
Suggest correction
comments
print report bad tab
1 comment total.
+1 reply
ckleber 26 Dec 11, 2011 02:36 PM

Hey man, great tab. Especially for a first tab. during the first part of the breakdown at "MOVE!!" there's some bending in between some notes, have any ideas? Cuz if you add those, this will be spot on minus the strumming.
But real good bro, 5*

guest
You may want to rate the tab now too:
select rating
Wanna post a correction for this tab? Suggest correction