Oops, an error
Loading. Please wait.

Golgotha bass

389 views 1 this week
no commentswrite comment
1 2 3 4 5
3 more votes to show rating
add to favorites
×
Save as Personal and add changes to this tab that will be seen only by you. Learn more ›
×
You can save this tab as Personal to edit and correct it or add notes. All changes will be seen only by you. Learn more »
launch autoscroll
font size
0
reset
guitar tuner
edit
Autoscroll
slow
fast
+/-
esc
set tempo
stop
Woe of Tyrants
Golgotha
Kingdom of Might
Metal Blade Records

tab by: Johnny of WOT
100% correct directly from WOT
kinda long because its from guitar pro enjoy, im working on the guitar now

      E  E  E  E  Q    Q       Q    Q    E  E  E  E     Q    Q     
D#||------------------------|------------------------|------------|
A#||------------------------|------------------------|------------|
F#||------------------------|------------------------|------------|
C#||------------------------|------------------------|------------|
G#||------------------------|-------4----------1-----|------------|
C#||--8--8--8--8--7----4----|--5---------1--4-----0--|------------|
 
 
  E  E  E  E  E  E  E  E     E  E  E  E  E  E  E  E   
--------------------------|--------------------------|
--------------------------|--------------------------|
--------------------------|--------------------------|
--------------------------|--------------------------|
--------------------------|--------------------------|
--0--0--1--1--4--4--4--4--|--4--4--5--5--4--4--5--5--|
 
 
  E  E  E  E  E  E  E  E     E  E  E  E  E  E  E  E   
--------------------------|--------------------------|
--------------------------|--------------------------|
--------------------------|--------------------------|
--------------------------|--------------------------|
--------------------------|--------------------------|
--8--8--7--7--4--4--4--4--|--4--4--5--5--4--5--4--1--|
 
 
  E  E  E  E  E  E  E  E     E  E  E  E  E  E  E  E     E  E  E  E  E  E  Q     
--------------------------|--------------------------|-------------------------|
--------------------------|--------------------------|-------------------------|
--------------------------|--------------------------|-------------------------|
--------------------------|--------------------------|-------------------------|
--------------------------|--------6--6--5--5--3--3--|--2--2--3--3--2--2-------|
--0--0--1--1--4--4--4--4--|--4--4--------------------|--------------------6----|
 
 
  E  E  E  E  E  E  E  E     E  E  E  E  E  E  E  E   
--------------------------|--------------------------|
--------------------------|--------------------------|
--------------------------|--------------------------|
--------------------------|--------------------------|
--2--3--2-----2--3--2-----|--------------------------|
-----------6-----------6--|--0--0--1--1--4--4--4--4--|
 
 
  E  E  E  E  E  E  E  E     E  E  E  E  E  E  E  E   
--------------------------|--------------------------|
--------------------------|--------------------------|
--------------------------|--------------------------|
--------------------------|--------------------------|
--------------------------|--------------------------|
--4--4--5--5--4--4--5--5--|--8--8--7--7--4--4--4--4--|
 
 
  E  E  E  E  E  E  E  E     E  E  E  E  E  E  E  E   
--------------------------|--------------------------|
--------------------------|--------------------------|
--------------------------|--------------------------|
--------------------------|--------------------------|
--------------------------|--------------------------|
--4--4--5--5--4--5--4--1--|--0--0--1--1--4--4--4--4--|
 
 
  E  E  E  E  E  E  E  E     E  E  E  E  E  E  Q       E  E  E  E  E  E  E  E   
--------------------------|-------------------------|--------------------------|
--------------------------|-------------------------|--------------------------|
--------------------------|-------------------------|--------------------------|
--------------------------|-------------------------|--------------------------|
--------6--6--5--5--3--3--|--2--2--3--3--2--2-------|--2--3--2-----2--3--2-----|
--4--4--------------------|--------------------6----|-----------6-----------6--|
 
 
  Q    Q    H           Q    Q    E  E  E  E     Q    Q    H         
---------------------|------------------------|---------------------|
---------------------|------------------------|---------------------|
---------------------|------------------------|---------------------|
---------------------|------------------------|---------------------|
---------------------|------------------------|---------------------|
--0----1----4--------|--L----5----4--5--4--5--|--8----7----4--------|
 
 
  Q    Q    E  E  E  E     Q    Q    H           Q     Q    Q    Q     
------------------------|---------------------|-----------------------|
------------------------|---------------------|-----------------------|
------------------------|---------------------|-----------------------|
------------------------|---------------------|-----------------------|
------------------------|---------------------|-------/8----7----5----|
--L----5----5--5--4--1--|--0----1----4--------|--L--------------------|
 
 
  Q    Q     H            Q     Q    Q     Q       Q    Q    H         
----------------------|-------------------------|---------------------|
----------------------|-------------------------|---------------------|
----------------------|-------------------------|---------------------|
----------------------|-------------------------|---------------------|
--7----8----11--------|---L----12----8----11----|---------------------|
----------------------|-------------------------|--0----1----4--------|
 
 
  Q    Q    E  E  E  E     Q    Q    H           Q    Q    E  E  E  E   
------------------------|---------------------|------------------------|
------------------------|---------------------|------------------------|
------------------------|---------------------|------------------------|
------------------------|---------------------|------------------------|
------------------------|---------------------|------------------------|
--L----5----4--5--4--5--|--8----7----4--------|--L----5----5--5--4--1--|
 
 
  Q    Q    H           Q     Q    Q    Q       Q    Q     H         
---------------------|-----------------------|----------------------|
---------------------|-----------------------|----------------------|
---------------------|-----------------------|----------------------|
---------------------|-----------------------|----------------------|
---------------------|-------/8----7----5----|--7----8----11--------|
--0----1----4--------|--L--------------------|----------------------|
 
 
   Q     Q    Q     Q        E   E   E   E   E   E   E   E   
-------------------------|----------------------------------|
-------------------------|----------------------------------|
-------------------------|----------------------------------|
-------------------------|----------------------------------|
---L----12----8----11----|----------------------------------|
-------------------------|--12--12--12--12--12--12--12--12--|
 
 
   E   E   E   E   E   E   E   E     E  E  E  E  E  E  E  E   
----------------------------------|--------------------------|
----------------------------------|--------------------------|
----------------------------------|--------------------------|
----------------------------------|--------------------------|
----------------------------------|--------------------------|
--12--12--12--12--11--11--11--11--|--8--8--8--8--8--8--8--8--|
 
 
   E   E   E   E  E  E  E  E     E  E  E  E  E  E  E  E   
------------------------------|--------------------------|
------------------------------|--------------------------|
------------------------------|--------------------------|
------------------------------|--------------------------|
------------------------------|--------------------------|
--11--11--11--11--8--8--8--8--|--7--7--7--7--7--7--7--7--|
 
 
  E  E  E  E  E  E  E  E     E  E  E  E  E  E  E  E   
--------------------------|--------------------------|
--------------------------|--------------------------|
--------------------------|--------------------------|
--------------------------|--------------------------|
--7--7--7--7--8--8--8--8--|--7--7--7--7--5--5--5--5--|
--------------------------|--------------------------|
 
 
  E  E  E  E  E  E  E  E     E  E  E  E  E   E  E  E   
--------------------------|---------------------------|
--------------------------|---------------------------|
--------------------------|---------------------------|
--------------------------|---------------------------|
--4--5--4--0--------------|-----------------11--8-----|
--------------5--5--3--3--|--0--0--0--0--0---------0--|
 
 
  E  E  E  E  E  E  E  E     E  E  E  E  E   E  E  E   
--------------------------|---------------------------|
--------------------------|---------------------------|
--------------------------|---------------------------|
--------------------------|---------------------------|
--8--7-----7--5-----------|-----------------11--8-----|
--------0--------8--7--5--|--0--0--0--0--0---------0--|
 
 
  E  E  E  E   E  E  E  E     E  E  E  E  E   E  E  E   
---------------------------|---------------------------|
---------------------------|---------------------------|
---------------------------|---------------------------|
---------------------------|---------------------------|
--8--7---------------------|-----------------11--8-----|
--------0--0--10--7--8--5--|--0--0--0--0--0---------0--|
 
 
  E  E  E  E  E  E  E  E     E  E  E  E  E   E  E  E     E  E  E  E  Q    Q     
--------------------------|---------------------------|------------------------|
--------------------------|---------------------------|------------------------|
--------------------------|---------------------------|------------------------|
--------------------------|---------------------------|------------------------|
--8--7-----7--5-----------|-----------------11--8-----|--8--7--------3----5----|
--------0--------8--7--5--|--0--0--0--0--0---------0--|--------0--0------------|
 
 
   E  E  E   E   E  E  E  E     E   E  E  E  E  E  E  E   
-----------------------------|---------------------------|
-----------------------------|---------------------------|
-----------------------------|---------------------------|
-----------------------------|---------------------------|
-----------------------------|---------------------------|
--12--0--0--12--10--8--7--0--|--0--10--8--7--5--0--0--8--|
 
 
  E  E  E  E  E  E  E  E     E   E  E  E   E  E  E   E   
--------------------------|-----------------------------|
--------------------------|-----------------------------|
--------------------------|-----------------------------|
--------------------------|-----------------------------|
--------------------------|-----------------------------|
--7--5--3--0--5--0--7--0--|--1s--4--L--4s--5--L--5s--4--|
 
 
  E  E  E   E  E   E  E  E      E  E  E    E   E    E   Q     
-----------------------------|-------------------------------|
-----------------------------|-------------------------------|
-----------------------------|-------------------------------|
-----------------------------|-------------------------------|
-----------------------------|-------------------------------|
--4--5--5s--8--8s--7--L--7s--|--8--L--8s--10--10s--12--12----|
 
 
   E  E  E   E   E  E  E  E     E   E  E  E  E  E  E  E   
-----------------------------|---------------------------|
-----------------------------|---------------------------|
-----------------------------|---------------------------|
-----------------------------|---------------------------|
-----------------------------|---------------------------|
--12--0--0--12--10--8--7--0--|--0--10--8--7--5--0--0--8--|
 
 
  E  E  E  E  E  E  E  E     E   E  E  E   E  E  E   E   
--------------------------|-----------------------------|
--------------------------|-----------------------------|
--------------------------|-----------------------------|
--------------------------|-----------------------------|
--------------------------|-----------------------------|
--7--5--3--0--5--0--7--0--|--1s--4--L--4s--5--L--5s--4--|
 
 
  E  E  E   E  E   E  E  E      E  E  E    E   E    E   Q     
-----------------------------|-------------------------------|
-----------------------------|-------------------------------|
-----------------------------|-------------------------------|
-----------------------------|-------------------------------|
-----------------------------|-------------------------------|
--4--5--5s--8--8s--7--L--7s--|--8--L--8s--10--10s--12--12----|
 
 
   E  E  E   E   E  E  E  E     E   E  E  E  E  E  E  E   
-----------------------------|---------------------------|
-----------------------------|---------------------------|
-----------------------------|---------------------------|
-----------------------------|---------------------------|
-----------------------------|---------------------------|
--12--0--0--12--10--8--7--0--|--0--10--8--7--5--0--0--8--|
 
 
  E  E  E  E  E  E  E  E     E   E  E  E   E  E  E   E   
--------------------------|-----------------------------|
--------------------------|-----------------------------|
--------------------------|-----------------------------|
--------------------------|-----------------------------|
--------------------------|-----------------------------|
--7--5--3--0--5--0--7--0--|--1s--4--L--4s--5--L--5s--4--|
 
 
  E  E  E   E  E   E  E  E      E  E  E    E   E    E   Q     
-----------------------------|-------------------------------|
-----------------------------|-------------------------------|
-----------------------------|-------------------------------|
-----------------------------|-------------------------------|
-----------------------------|-------------------------------|
--4--5--5s--8--8s--7--L--7s--|--8--L--8s--10--10s--12--12----|
 
 
   E  E  E   E   E  E  E  E     E   E  E  E  E  E  E  E   
-----------------------------|---------------------------|
-----------------------------|---------------------------|
-----------------------------|---------------------------|
-----------------------------|---------------------------|
-----------------------------|---------------------------|
--12--0--0--12--10--8--7--0--|--0--10--8--7--5--0--0--8--|
 
 
  E  E  E  E  E  E  E  E     E   E  E  E   E  E  E   E   
--------------------------|-----------------------------|
--------------------------|-----------------------------|
--------------------------|-----------------------------|
--------------------------|-----------------------------|
--------------------------|-----------------------------|
--7--5--3--0--5--0--7--0--|--1s--4--L--4s--5--L--5s--4--|
 
 
  E  E  E   E  E   E  E  E      E  E  E    E   E    E   Q     
-----------------------------|-------------------------------|
-----------------------------|-------------------------------|
-----------------------------|-------------------------------|
-----------------------------|-------------------------------|
-----------------------------|-------------------------------|
--4--5--5s--8--8s--7--L--7s--|--8--L--8s--10--10s--12--12----|
 
 
  S  S  E  E  E  Q    S  S  E     E  E  Q    S  S  E  E  E   
-------------------------------|----------------------------|
-------------------------------|----------------------------|
-------------------------------|----------------------------|
--4h-5p-4-----4-------4h-5p-4--|-----4-------4h-5p-4-----4--|
-----------6-----3-------------|--6-----3-------------6-----|
-------------------------------|----------------------------|
 
 
  E  E  E  E  E  E  E  E     E  E  E  E  E  E  E  E   
--------------------------|--------------------------|
--------------------------|--------------------------|
--------------------------|--------------------------|
--------------------------|--------------------------|
--------------------------|--------------------------|
--5--5--4--4--1--1--5--5--|--5--5--4--4--1--1--1--1--|
 
 
  S  S  E  E  E  Q    S  S  E     E  E  Q    S  S  E  E  E   
-------------------------------|----------------------------|
-------------------------------|----------------------------|
-------------------------------|----------------------------|
--4h-5p-4-----4-------4h-5p-4--|-----4-------4h-5p-4-----4--|
-----------6-----3-------------|--6-----3-------------6-----|
-------------------------------|----------------------------|
 
 
  E  E  E  E  E  E  Q       Q    E   E  E   E  Q     
-------------------------|--------------------------|
-------------------------|--------------------------|
-------------------------|--------------------------|
-------------------------|--------------------------|
-------------------------|-------5p--4--5p--4-------|
--4--4--5--5--8--8--7----|--L------------------8----|
 
 
  S  S  E  E  E  Q    S  S  E     E  E  Q    S  S  E  E  E   
-------------------------------|----------------------------|
-------------------------------|----------------------------|
-------------------------------|----------------------------|
--4h-5p-4-----4-------4h-5p-4--|-----4-------4h-5p-4-----4--|
-----------6-----3-------------|--6-----3-------------6-----|
-------------------------------|----------------------------|
 
 
  E  E  E  E  E  E  E  E     E  E  E  E  E  E  E  E   
--------------------------|--------------------------|
--------------------------|--------------------------|
--------------------------|--------------------------|
--------------------------|--------------------------|
--------------------------|--------------------------|
--5--5--4--4--1--1--5--5--|--5--5--4--4--1--1--1--1--|
 
 
  S  S  E  E  E  Q    S  S  E     E  E  Q    S  S  E  E  E   
-------------------------------|----------------------------|
-------------------------------|----------------------------|
-------------------------------|----------------------------|
--4h-5p-4-----4-------4h-5p-4--|-----4-------4h-5p-4-----4--|
-----------6-----3-------------|--6-----3-------------6-----|
-------------------------------|----------------------------|
 
 
  E  E  E  E  E  E  Q       Q    E   E  E   E  Q       Q    Q    Q    E  E   
-------------------------|--------------------------|-----------------------|
-------------------------|--------------------------|-----------------------|
-------------------------|--------------------------|-----------------------|
-------------------------|--------------------------|-----------------------|
-------------------------|-------5p--4--5p--4-------|-----------------------|
--4--4--5--5--8--8--7----|--L------------------8----|--5-----------------5--|
 
 
  Q    Q    Q    Q       E  E  E  Q    E  Q       E  E  E  E  E  E  E  E   
----------------------|------------------------|--------------------------|
----------------------|------------------------|--------------------------|
----------------------|------------------------|--------------------------|
----------------------|------------------------|--------------------------|
----------------------|------------------------|--------------------------|
--4----5--------------|--8--8--8--8----8--8----|--4--4--4--4--4--4--4--4--|
 
 
  E  E  E  E  E  E  E  E     E  E  E  E  E  E  E  E   
--------------------------|--------------------------|
--------------------------|--------------------------|
--------------------------|--------------------------|
--------------------------|--------------------------|
--------------------------|--------------------------|
--5--5--5--5--5--5--5--5--|--4--4--5--5--5--5--5--5--|
 
 
  E  E  E  Q     E  E  E      E   E   E   E   E   E   E   E   
--------------------------|----------------------------------|
--------------------------|----------------------------------|
--------------------------|----------------------------------|
--------------------------|----------------------------------|
--------------------------|----------------------------------|
--8--5--7--8----10--7--8--|--13--13--13--13--12--12--12--12--|
 
 
  E  E  E  E  E  E  E  E     E  E  E  E  E  E  E  E     E  E  E  Q    E  Q     
--------------------------|--------------------------|------------------------|
--------------------------|--------------------------|------------------------|
--------------------------|--------------------------|------------------------|
--------------------------|--------------------------|------------------------|
--------------------------|--------------------------|------------------------|
--5--5--5--5--5--5--5--5--|--4--4--5--5--5--5--5--5--|--8--8--8--8----8--8----|
 
 
  E  E  E  E  E  E  E  E     E  E  E  E  E  E  E  E   
--------------------------|--------------------------|
--------------------------|--------------------------|
--------------------------|--------------------------|
--------------------------|--------------------------|
--------------------------|--------------------------|
--4--4--4--4--4--4--4--4--|--5--5--5--5--5--5--5--5--|
 
 
  E  E  E  E  E  E  E  E     E  E  E  Q     E  E  E   
--------------------------|--------------------------|
--------------------------|--------------------------|
--------------------------|--------------------------|
--------------------------|--------------------------|
--------------------------|--------------------------|
--4--4--5--5--5--5--5--5--|--8--5--7--8----10--7--8--|
 
 
   E   E   E   E   E   E   E   E     E  E   E  E   E  E  E   E   
----------------------------------|-----------------------------|
----------------------------------|-----------------------------|
----------------------------------|-----------------------------|
----------------------------------|-----------------------------|
----------------------------------|--------10--L--12--------10--|
--13--13--13--13--12--12--12--12--|--8--8-------------8--8------|
 
 
  E   E  E  E   E   E   E  E     E  E  E  E   E  E  E  E   
------------------------------|---------------------------|
------------------------------|---------------------------|
------------------------------|---------------------------|
------------------------------|---------------------------|
--L--12--------13--12--10--9--|--------9--L--10--------9--|
---------8--8-----------------|--5--5------------5--5-----|
 
 
  E   E  E  E   E  E  E  E     E  E   E  E   E  E  E   E   
----------------------------|-----------------------------|
----------------------------|-----------------------------|
----------------------------|-----------------------------|
----------------------------|-----------------------------|
--L--10--------10--9--6--9--|--------10--L--12--------10--|
---------5--5---------------|--8--8-------------8--8------|
 
 
  E   E  E  E   E   E   E  E     E  E  E  E  E   E  Q     
------------------------------|--------------------------|
------------------------------|--------------------------|
------------------------------|--------------------------|
------------------------------|--------------------------|
--L--12--------13--12--10--9--|--------5-----5h--6--5----|
---------8--8-----------------|--0--0-----0--------------|
 
 
  E  E  E  E  E   E   E  E     E  E   E  E   E  E  E   E   
----------------------------|-----------------------------|
----------------------------|-----------------------------|
----------------------------|-----------------------------|
----------------------------|-----------------------------|
--L--------------12--10--7--|--------10--L--12--------10--|
-----0--0--0--0-------------|--8--8-------------8--8------|
 
 
  E   E  E  E   E   E   E  E     E  E  E  E   E  E  E  E   
------------------------------|---------------------------|
------------------------------|---------------------------|
------------------------------|---------------------------|
------------------------------|---------------------------|
--L--12--------13--12--10--9--|--------9--L--10--------9--|
---------8--8-----------------|--5--5------------5--5-----|
 
 
  E   E  E  E   E  E  E  E     E  E   E  E   E  E  E   E   
----------------------------|-----------------------------|
----------------------------|-----------------------------|
----------------------------|-----------------------------|
----------------------------|-----------------------------|
--L--10--------10--9--6--9--|--------10--L--12--------10--|
---------5--5---------------|--8--8-------------8--8------|
 
 
  E   E  E  E   E   E   E  E     E  E  E  E  E   E  Q     
------------------------------|--------------------------|
------------------------------|--------------------------|
------------------------------|--------------------------|
------------------------------|--------------------------|
--L--12--------13--12--10--9--|--------5-----5h--6--5----|
---------8--8-----------------|--0--0-----0--------------|
 
 
  E  E  E  E  E  E  E  E     E  E  E  E  E   E  Q     
--------------------------|--------------------------|
--------------------------|--------------------------|
--------------------------|--------------------------|
--------------------------|--------------------------|
--L-----------------------|--------5-----5h--6--9----|
-----0--0--0--0--0--0--0--|--0--0-----0--------------|
 
 
  E  E  E  E  E  E  E  E     E  E  E  E  E   E  Q     
--------------------------|--------------------------|
--------------------------|--------------------------|
--------------------------|--------------------------|
--------------------------|--------------------------|
--L-----------------------|--------5-----5h--6--5----|
-----0--0--0--0--0--0--0--|--0--0-----0--------------|
 
 
  E  E  E  E  E  E  E  E     E  E  E  E  E   E  Q     
--------------------------|--------------------------|
--------------------------|--------------------------|
--------------------------|--------------------------|
--------------------------|--------------------------|
--L-----------------------|--------5-----5h--6--9----|
-----0--0--0--0--0--0--0--|--0--0-----0--------------|
 
 
  E  E  Q    Q    Q    Q       E  E  E  E  E  E  E  E   
----------------------------|--------------------------|
----------------------------|--------------------------|
----------------------------|--------------------------|
----------------------------|--------------------------|
--L--9--9----9----8----6----|--------------------------|
----------------------------|--0--0--0-----0--0--0--0--|
 
 
  E  E  E  E  E  E  E  E     E  E  E  E  E  E  E  E   
--------------------------|--------------------------|
--------------------------|--------------------------|
--------------------------|--------------------------|
--------------------------|--------------------------|
--------------------------|--------------------------|
-----0--0-----------------|--0--0--0-----0--0--0--0--|
 
 
  E  E  E  E  E  E  E  E     E  E  E  E  E  E  E  E   
--------------------------|--------------------------|
--------------------------|--------------------------|
--------------------------|--------------------------|
--------------------------|--------------------------|
--------------------------|--------------------------|
-----0--0-----------------|--0--0--0-----0--0--0--0--|
 
 
  E  E  E  E  E  E  E  E     E  E  E  E  E  E  E  E     E  E  E  E   
--------------------------|--------------------------|--------------|
--------------------------|--------------------------|--------------|
--------------------------|--------------------------|--------------|
--------------------------|--------------------------|--------------|
--------------------------|--------------------------|--------------|
-----0--0-----------------|--0--0--0-----0--0--0--0--|-----0--0-----|
 
 
  Q    Q    Q    Q       E  E  E  E  E  E  Q       E   E   E  E  E  E  E  E   
----------------------|-------------------------|----------------------------|
----------------------|-------------------------|----------------------------|
----------------------|-------------------------|----------------------------|
----------------------|-------------------------|----------------------------|
----------------------|-------------------------|----------------------1-----|
----------------------|--1--0--0--1--0--0--1----|--4h--5p--4--1--0--0-----0--|
 
 
  E  E  E  E  E  E  Q       E   E   E  E  E  E  E  E   
-------------------------|----------------------------|
-------------------------|----------------------------|
-------------------------|----------------------------|
-------------------------|----------------------------|
-------------------------|----------------------4-----|
--1--0--0--1--0--0--1----|--4h--5p--4--1--0--0-----0--|
 
 
  E  E  E  E  E  E  Q       E   E   E  E  E  E  E  E   
-------------------------|----------------------------|
-------------------------|----------------------------|
-------------------------|----------------------------|
-------------------------|----------------------------|
-------------------------|----------------------1-----|
--1--0--0--1--0--0--1----|--4h--5p--4--1--0--0-----0--|
 
 
  E  E  E  E  E  E  E  E     Q    E  Q    E  Q       E  E  E  E  E  E  Q     
--------------------------|-----------------------|-------------------------|
--------------------------|-----------------------|-------------------------|
--------------------------|-----------------------|-------------------------|
--------------------------|-----------------------|-------------------------|
--------------------------|--9----L--8----L--5----|-------------------------|
--1--0--0--1--0--0--0--0--|-----------------------|--1--0--0--1--0--0--1----|
 
 
  E   E   E  E  E  E  E  E     E  E  E  E  E  E  Q     
----------------------------|-------------------------|
----------------------------|-------------------------|
----------------------------|-------------------------|
----------------------------|-------------------------|
----------------------1-----|-------------------------|
--4h--5p--4--1--0--0-----0--|--1--0--0--1--0--0--1----|
 
 
  E   E   E  E  E  E  E  E     E  E  E  E  E  E  Q     
----------------------------|-------------------------|
----------------------------|-------------------------|
----------------------------|-------------------------|
----------------------------|-------------------------|
----------------------4-----|-------------------------|
--4h--5p--4--1--0--0-----0--|--1--0--0--1--0--0--1----|
 
 
  E   E   E  E  E  E  E  E     E  E  E  E  E  E  E  E     Q    E  Q    E  Q     
----------------------------|--------------------------|-----------------------|
----------------------------|--------------------------|-----------------------|
----------------------------|--------------------------|-----------------------|
----------------------------|--------------------------|-----------------------|
----------------------1-----|--------------------------|--9----L--8----L--5----|
--4h--5p--4--1--0--0-----0--|--1--0--0--1--0--0--0--0--|-----------------------|
 
 
  E  E  E  E  E  E  E  E     Q    Q    E  E  E  E     E  E  E  E  E  E  E  E   
--------------------------|------------------------|--------------------------|
--------------------------|------------------------|--------------------------|
--------------------------|------------------------|--------------------------|
--------------------------|------------------------|--------------------------|
--------------------------|------------------------|--------------------------|
--0--0--0--0-----0--0-----|------------0--0--0--0--|-----0--0-----0--0--0--0--|
 
 
  Q    E  Q    E  Q       E  E  E  E  E  E  E  E     Q    Q    E  E  E  E   
-----------------------|--------------------------|------------------------|
-----------------------|--------------------------|------------------------|
-----------------------|--------------------------|------------------------|
-----------------------|--------------------------|------------------------|
--9----L--8----L--5----|--------------------------|------------------------|
-----------------------|--0--0--0--0-----0--0-----|------------0--0--0--0--|
 
 
  E  E  E  E  E  E  E  E     Q    E  Q    E  Q      
--------------------------|-----------------------||
--------------------------|-----------------------||
--------------------------|-----------------------||
--------------------------|-----------------------||
--------------------------|--9----L--8----L--5----||
-----0--0-----0--0--0--0--|-----------------------||
 
 
 
 
Duration Legend
---------------
W - whole
H - half
Q - quarter
E - 8th
S - 16th
T - 32nd
X - 64th
. - note dotted
|-n-|  - n-tuplets
 
 
Tablature Legend
----------------
L - tied note
x - dead note
g - grace note
(n) - ghost note
> - accentuded note
NH - natural harmonic
AH - artificial harmonic
TH - tapped harmonic
SH - semi harmonic
PH - pitch harmonic
h - hammer on
p - pull off
b - bend
br - bendRelease
pb - preBend
pbr - preBendRelease
brb - bendReleaseBend
\n/ - tremolo bar dip
\n - tremolo bar dive
-/n - tremolo bar Release up
/n\ - tremolo bar inverted dip
/n - tremolo bar return
-\n - tremolo bar Release down
S - shift slide
s - legato slide
/ -  slide into from below or out of upwards
\ -  slide into from above or out of downwards
~ - vibrato
W - wide vibrato
tr - tril'
TP - tremolo picking
T - tapping
S - slap
P - pop
< - fade in
^ - brush up
v - brush down



            
            
Suggest correction
Creating personal tab
Creating personal tab
You can edit any tab online and save it as your Personal.

You can edit, replace or remove any tab part or add personal notes – all changes will be seen only by you.

Personal tabs can be accessed anytime from any device, even offline.
Learn more »
Give kudos to tab author, rate the tab!
1 2 3 4 5
comments
print report bad tab
guest
You may want to rate the tab now too:
select rating
Wanna post a correction for this tab? Suggest correction