Oops, an error
Loading. Please wait.

Blush bass

2,275 views 9 this week
1 commentread comment
1 2 3 4 5
x 6
add to favorites
×
Save as Personal and add changes to this tab that will be seen only by you. Learn more ›
×
You can save this tab as Personal to edit and correct it or add notes. All changes will be seen only by you. Learn more »
launch autoscroll
font size
0
reset
guitar tuner
edit
Autoscroll
slow
fast
+/-
esc
set tempo
stop
Author
Difficulty
This is a really really simple bass line, but it's such a good song I thought I'd tab it anyway.I was lucky 
enough to meet Theo (the bassist) - he's a lovely guy as are the rest of the band! I think this is accurate but
its hard to pick out which octaves are used in the chorus and the exact timing of the little hammer ons etc.
Enjoy, Dan

/ = slide
p = pull


No bass for intro and first verse

Second Verse & Pre-chorus:

G |---------------------------------|
D |---------------------------------| x10
A |5~~~~~~~/0~~~~~~~----------------|
E |-----------------0~~~~~~~~~~~~~~~|


Chorus/heavy bit: 

                                                              
G |----------------------------------------------------------------|   
D |----------------------------------2-2---2-----2---2-2---2-----2-| x4 
A |2-2-2-2-2-2-2-2/0-0-0-0-0-0-0-0---------------------------------| 
E |--------------------------------0-----0---0-0---0-----0---0-0---|

G |----------------------------------------------------------------|
D |----------------------------------------------------------------| x2
A |2-2-2-2-2-2-2-2/0-0-0-0-0-0-0-0---------------------------------| 
E |--------------------------------0-0-0-0-0-0-0-0-0-0-0-0-0-0-0-0-| 


   I                feel             love
G |------------------------------------------------------------------|
D |------------------------------------------------------4p2---------| x6
A |2~~~~~~~~~~~~~~~/0~~~~~~~~~~~~~~~---------------------------------|
E |----------------------------------0-0-0-0-0-0-0-0-0-0-----0-0-2p0-|

Ending

G |---------------------------------|
D |---------------------------------| x2
A |5~~~~~~~/0~~~~~~~----------------|
E |-----------------0~~~~~~~~~~~~~~~|

G |----------------------------------|
D |----------------------------------| 
A |5~~~~~~~/0~~~~~~~/7~~~~~~~~~~~~~~~|
E |----------------------------------|

G |---------------------------------|
D |---------------------------------|
A |5~~~~~~~/0~~~~~~~----------------|
E |-----------------0~~~~~~~~~~~~~~~|

            
            
Suggest correction
Creating personal tab
Creating personal tab
You can edit any tab online and save it as your Personal.

You can edit, replace or remove any tab part or add personal notes – all changes will be seen only by you.

Personal tabs can be accessed anytime from any device, even offline.
Learn more »
comments
print report bad tab
1 comment total.
+1 reply
TheFinnMint 32 Aug 08, 2015 01:27 PM

looks like this is the first bass tab anyones written for a wolf alice song! great job!

guest
You may want to rate the tab now too:
select rating
Wanna post a correction for this tab? Suggest correction