Oops, an error
Loading. Please wait.

Freazy bass

490 views 6 this week
1 commentread comment
1 2 3 4 5
x 5
add to favorites
×
Save as Personal and add changes to this tab that will be seen only by you. Learn more ›
×
You can save this tab as Personal to edit and correct it or add notes. All changes will be seen only by you. Learn more »
launch autoscroll
font size
0
reset
guitar tuner
edit
Autoscroll
slow
fast
+/-
esc
set tempo
stop
Author
Difficulty
About this tab version
This is the tab for the studio version. Listen to song for timing. Was this info helpful? Yes No
------------------------- Wolf Alice - Freazy -------------------------------|

[Intro + Chorus]

G|---------------------------------------------------------------------------|
D|-55----33----1010----1010-------55----33----1010---------------------------|
A|---------------------------------------------------77--33-3----------------|
E|3--3--1--1--8----8--8----8-----3--3--1--1--8----8--------3-3---------------|


[Verse] "Long were the days..."

G|---------------------------------------------------------------------------|
D|------------------------------------------------------Play 4 times---------|
A|---------------------------------------------------------------------------|
E|333333333/111111111/888888888888888888-------------------------------------|


[Chorus] "Do you really wanna..."

G|---------------------------------------------------------------------------|
D|-55----33----1010----------------------Repeat------------------------------|
A|--------------------77 33-3------------------------------------------------|
E|3--3--1--1--8----8-------3-3-----------------------------------------------|


[Verse] "I built the paths..."

G|---------------------------------------------------------------------------|
D|------------------------------------------------------Play 4 times---------|
A|---------------------------------------------------------------------------|
E|333333333/111111111/888888888888888888-------------------------------------|


[Chorus] "Do you really wanna..."

G|---------------------------------------------------------------------------|
D|-55----33----1010----------------------Play twice--------------------------|
A|--------------------77 33--------------------------------------------------|
E|3--3--1--1--8----8-------333-----------------------------------------------|


[Bridge] "I will meet you where the grass is greener..."

G|---------------------------------------------------------------------------|
D|-7/5---5/3---12/10--12/10-----------------------------Play 4 times---------|
A|---------------------------------------------------------------------------|
E|3-----1-----8------8-------------------------------------------------------|

G|-----------------------1212------------------------------------------------|
D|-On last time play-1010-----1010-10---Instead of the last--12/10-----------|
A|---------------------------------------------------------------------------|
E|--------------------------------8--8----------------------8----------------|


[Outro]

G|---------------------------------------------------------------------------|
D|------------------------------------------------------Play 4 times---------|
A|---------------------------------------------------------------------------|
E|33333333/1111111111/8888888888888888---------------------------------------|



************************************

| /  Slide up

************************************
Suggest correction
Creating personal tab
Creating personal tab
You can edit any tab online and save it as your Personal.

You can edit, replace or remove any tab part or add personal notes – all changes will be seen only by you.

Personal tabs can be accessed anytime from any device, even offline.
Learn more »
comments
print report bad tab
1 comment total.
+1 reply
federico.ortega 10 Jan 03, 2017 09:18 PM

thank you so much!

guest
You may want to rate the tab now too:
select rating
Wanna post a correction for this tab? Suggest correction