Oops, an error
Loading. Please wait.

Freazy Tab

version 2
version 2

Intro

Whole song

133 views 3 this week
no commentswrite comment
1 2 3 4 5
2 more votes to show rating
add to favorites
launch autoscroll
font size
0
reset
how to read this tab
guitar tuner
Autoscroll
slow
fast
+/-
esc
set tempo
stop
Help us to improve Ultimate-Guitar.com Take our survey!
×
Author
Difficulty
novice
Freazy Intro by Wolf Alice
tabbed by: beachfossils
Tuning: Standard EADGBe

E|----------------------------------
B|--5---------------5---------------
G|-----4--5--2p0-------4--5--4--7b--
D|----------------------------------
A|----------------------------------
E|----------------------------------

E|----------------------------
B|--5-------------------------
G|-----4--5--2p0----2/4--2p0--
D|----------------------------
A|----------------------------
E|-----------------------------

E|---------------------------------
B|--5---------------5--------------
G|-----4--5--2p0-------4--5--7b----
D|---------------------------------
A|---------------------------------
E|---------------------------------

E|----------------------------
B|--5-------------------------
G|-----4--5--2p0----2/4--2p0--
D|----------------------------
A|----------------------------
E|----------------------------


************************************

| /   slide up
| p   pull-off
| b   Bend

************************************
Suggest correction
Give kudos to tab author, rate the tab!
1 2 3 4 5
comments
print report bad tab
guest
You may want to rate the tab now too:
select rating
Wanna post a correction for this tab? Suggest correction