Oops, an error
Loading. Please wait.

Moaning Lisa Smile bass

version 1
version 1

Whole song

Interactive

3,209 views 27 this week
3 commentsread comments
1 2 3 4 5
x 8
add to favorites
×
Save as Personal and add changes to this tab that will be seen only by you. Learn more ›
×
You can save this tab as Personal to edit and correct it or add notes. All changes will be seen only by you. Learn more »
launch autoscroll
font size
0
reset
guitar tuner
edit
Autoscroll
slow
fast
+/-
esc
set tempo
stop
Author
Difficulty
Moaning Lisa Smile - Wolf Alice
Tabbed by: TheFinnMint
Tuning: Standard

Bass comes in at about 0:10 along with the heavily distorted guitar and drums. 

There's play off the 5th and 4th in snd verse, and a solo part.

[Chorus]
   Bm             D                        Bm
G|------------------------|------------------------|
D|------------------------|------------------------|
A|-2--2--2-/7--7--5--5--5-|-5--5--5-/7--7--2--2--0-| x2
E|------------------------|------------------------|

[Verse]
   Bm             D                        Bm
G|------------------------|------------------------|\
D|------------------------|------------------------| \
A|-2--2--2-/7--x--5--5--5-|-5--5--5-/7--x--2--2--2-|  \
E|------------------------|------------------------|   \
   Bm             D                        Bm           >x2
G|------------------------|------------------------|   /
D|------------------------|------------------------|  /
A|-2--2--2-/7--x--5--5--5-|-5--5--5-/7--x--2--2--0-| /
E|------------------------|------------------------|/

[Chorus]
   Bm             D                        Bm
G|------------------------|------------------------|
D|------------------------|------------------------|
A|-2--2--2-/7--7--5--5--5-|-5--5--5-/7--7--2--2--0-| x4
E|------------------------|------------------------|

[Verse 2]
   Bm             D                        Bm
G|------------------------|------------------------|
D|----4-----2-------------|----7-------------------|
A|-2-----2-----2-/5--5--5-|-5-----5--7--x--2--2--2-| x2
E|------------------------|------------------------|
   Bm             D                        Bm
G|------------------------|------------------------|
D|------------------------|------------------------|
A|-2--2--2-/7--x--5--5--5-|-5--5--5-/7--x--2--2--2-|
E|------------------------|------------------------|
   Bm             D       stop
G|------------------------|------------------------|
D|------------------------|------------------------|
A|-2--2--2-/7--x--5--5--5-|-5.---------------------|
E|------------------------|------------------------|

[Chorus]
   Bm             D                        Bm
G|------------------------|------------------------|
D|------------------------|------------------------|
A|-2--2--2-/7--7--5--5--5-|-5--5--5-/7--7--2--2--0-| x4
E|------------------------|------------------------|

[Solo]
   Bm             D                        Bm
G|------------------------|------------------------|
D|----4-----2-------------|-------4----------------|
A|-2-----2-----2-/5--5--0-|-5--7-----5-\2--2--2--0-|
E|------------------------|------------------------|
   Bm             D                        Bm
G|------------------------|------------------------|
D|----4-----2-------------|-------4----------------|
A|-2-----2-----2-/5--5--0-|-5--7-----2-----2--2--0-|
E|------------------------|------------------------|
  Bm             D                         Bm
G|------------------------|------------------------|
D|----4-----2--------7----|----7-------------------|
A|-2-----2-----2-/5-----0-|-5-----5--7--x-\2--2--0-|
E|------------------------|------------------------|
   Bm             D                        Bm
G|------------------------|------------------------|
D|------------------------|------------------------|
A|-2--2--2-/7--x--5--5--5-|-5--5--5-/7--x--2--2--2-|
E|------------------------|------------------------|

[Chorus]
   Bm             D                        Bm
G|------------------------|------------------------|
D|------------------------|------------------------|
A|-2--2--2-/7--7--5--5--5-|-5--5--5-/7--7--2--2--0-| x8 skip last note  
E|------------------------|------------------------|

************************************

| /  Slide up
| x  Dead note
| \  Slide down

************************************
Suggest correction
Creating personal tab
Creating personal tab
You can edit any tab online and save it as your Personal.

You can edit, replace or remove any tab part or add personal notes – all changes will be seen only by you.

Personal tabs can be accessed anytime from any device, even offline.
Learn more »
comments
print report bad tab
3 comments total.
+2 reply
ellis.tuxtucker 10 Sep 07, 2015 03:00 PM

It's actually on the A string. Apart from that perfect!

0 reply
Kevinsyel 10 May 14, 2016 11:14 AM

notes are on the Wrong string. Lack of accurate parts, including second verse and solo.
The only thing right are the frets

0 reply
Kevinsyel 10 May 14, 2016 11:14 AM

Correct Tab- There's play off the 5th and 4th in snd verse, and a solo part.
CHORUS
Bm D Bm
G|------------------------|------------------------|
D|------------------------|------------------------|
A|-2--2--2-/7--7--5--5--5-|-5--5--5-/7--7--2--2--0-| x2
E|------------------------|------------------------|

VERSE
Bm D Bm
G|------------------------|------------------------|\
D|------------------------|------------------------| \
A|-2--2--2-/7--x--5--5--5-|-5--5--5-/7--x--2--2--2-| \
E|------------------------|------------------------| \
Bm D Bm >x2
G|------------------------|------------------------| /
D|------------------------|------------------------| /
A|-2--2--2-/7--x--5--5--5-|-5--5--5-/7--x--2--2--0-| /
E|------------------------|------------------------|/

CHORUS
Bm D Bm
G|------------------------|------------------------|
D|------------------------|------------------------|
A|-2--2--2-/7--7--5--5--5-|-5--5--5-/7--7--2--2--0-| x4
E|------------------------|------------------------|

VERSE 2
Bm D Bm
G|------------------------|------------------------|
D|----4-----2-------------|----7-------------------|
A|-2-----2-----2-/5--5--5-|-5-----5--7--x--2--2--2-| x2
E|------------------------|------------------------|
Bm D Bm
G|------------------------|------------------------|
D|------------------------|------------------------|
A|-2--2--2-/7--x--5--5--5-|-5--5--5-/7--x--2--2--2-|
E|------------------------|------------------------|
Bm D stop
G|------------------------|------------------------|
D|------------------------|------------------------|
A|-2--2--2-/7--x--5--5--5-|-5.---------------------|
E|------------------------|------------------------|

CHORUS
Bm D Bm
G|------------------------|------------------------|
D|------------------------|------------------------|
A|-2--2--2-/7--7--5--5--5-|-5--5--5-/7--7--2--2--0-| x4
E|------------------------|------------------------|

SOLO
Bm D Bm
G|------------------------|------------------------|
D|----4-----2-------------|-------4----------------|
A|-2-----2-----2-/5--5--0-|-5--7-----5-\2--2--2--0-|
E|------------------------|------------------------|
Bm D Bm
G|------------------------|------------------------|
D|----4-----2-------------|-------4----------------|
A|-2-----2-----2-/5--5--0-|-5--7-----2-----2--2--0-|
E|------------------------|------------------------|
Bm D Bm
G|------------------------|------------------------|
D|----4-----2--------7----|----7-------------------|
A|-2-----2-----2-/5-----0-|-5-----5--7--x-\2--2--0-|
E|------------------------|------------------------|
Bm D Bm
G|------------------------|------------------------|
D|------------------------|------------------------|
A|-2--2--2-/7--x--5--5--5-|-5--5--5-/7--x--2--2--2-|
E|------------------------|------------------------|

CHORUS
Bm D Bm
G|------------------------|------------------------|
D|------------------------|------------------------|
A|-2--2--2-/7--7--5--5--5-|-5--5--5-/7--7--2--2--0-| x8 skip last note
E|------------------------|------------------------|

guest
You may want to rate the tab now too:
select rating
Wanna post a correction for this tab? Suggest correction