Oops, an error
Loading. Please wait.

The Wonderwhy tab

version 3
version 3

Whole song

1,274 views 9 this week
no commentswrite comment
1 2 3 4 5
x 5
add to favorites
×
Save as Personal and add changes to this tab that will be seen only by you. Learn more ›
×
You can save this tab as Personal to edit and correct it or add notes. All changes will be seen only by you. Learn more »
launch autoscroll
font size
0
reset
how to read this tab
guitar tuner
edit
Autoscroll
slow
fast
+/-
esc
set tempo
stop
Artist: Wolf Alice
Album: My Love Is Cool
Tabbed by: Michael Saikaley


Ellie's parts throughout the whole song: (Listen to the song for timing and when to play them)

E|-----------------------------------------------|---------------------------------------------------|
B|-----------------------------------------------|---------------------------------------------------|
G|-----------------------------------------------|---------------------------------------------------|
D|--0--0--0--0--0--0--0--0--0--0--0--0--0--0--0--|--0---0---0---0--0--0--0---0--0--0--0--0--0--0--0--|
A|--2--2--2--4--4--4--4--4--5--5--5--5--5--5--5--|--10--10--10--9--9--9--12--7--7--9--9--5--5--5--5--|
E|-----------------------------------------------|---------------------------------------------------|

E|-----------------------------------------------|
B|-----------------------------------------------|
G|-----------------------------------------------|
D|--0--0--0--0--0--0--0--0--0--0--0--0--0--0--0--|
A|--2--2--2--4--4--4--4--4--5--5--5--5--5--5--5--|
E|-----------------------------------------------|


Ellie Rhythm: (I'm not too sure about these chords, feel free to correct me if I'm wrong)

E|---------
B|---------
G|---------
D|--0--7--5
A|--2--5--3   (palm mute 20 chord several times, then 57 and 35 power chords starting at 2:27, 
E|---------   I'll leave it to you to figure out the transitions, an alternative is to play 79, 57 and 02
              power chords starting on the low E)    


Joff's lead parts:

E|--3--3--3--3--3--3--3--0h2--3-----------0h2--3-----------0h2--3-------------------------|
B|-------------------------------0--2--3----------0--2-------------0--2--3--3p2-----------|
G|------------------------------------------------------2------------------------2--4--0--|
D|----------------------------------------------------------------------------------------|
A|----------------------------------------------------------------------------------------|
E|----------------------------------------------------------------------------------------|


E|---------------------0h2--3-------------------------|
B|--8--7--10--5--7--3----------0--2--3--3p2-----------|
G|-------------------------------------------2--4--0--|
D|----------------------------------------------------|
A|----------------------------------------------------|
E|----------------------------------------------------|
Suggest correction
Creating personal tab
Creating personal tab
You can edit any tab online and save it as your Personal.

You can edit, replace or remove any tab part or add personal notes – all changes will be seen only by you.

Personal tabs can be accessed anytime from any device, even offline.
Learn more »
comments
print report bad tab
guest
You may want to rate the tab now too:
select rating
Wanna post a correction for this tab? Suggest correction