Oops, an error
Loading. Please wait.

Your Loves Whore bass

version 1
version 1

Whole song

  • I included all of the parts with the proper time s... Show more
2,046 views 36 this week
1 commentread comment
1 2 3 4 5
x 6
add to favorites
×
Save as Personal and add changes to this tab that will be seen only by you. Learn more ›
×
You can save this tab as Personal to edit and correct it or add notes. All changes will be seen only by you. Learn more »
launch autoscroll
font size
0
reset
guitar tuner
edit
Autoscroll
slow
fast
+/-
esc
set tempo
stop
Author
This is the bassline for Your Loves Whore by Wolf Alice, fairly certain this is accurate.

Hard to transcribe rhythm and amount of notes that are being played so there may be more or less
use your ears :)

Intro 
 
G|---------------------------------------------------------------|
D|----------14-14-12-12-12-/-16-16-14-14-12-14-14-14-------------|
A|--/12-12-------------------------------------------------------|
E|---------------------------------------------------------------|

0:43 and chorus:

G|---------------------------------------------------------------------------------------|
D|---------------------------------------------------------------------------------------|
A|-12-12-12-12-12-12-12-10-10-10-10-10-10-10-10-10-9-9-9-9-9-9-9-10-10-10-10-10-10-10-10-|
E|---------------------------------------------------------------------------------------|

Verse

G|---------------------------------------------------------------|
D|----------14-14-12-12-12-/-16-16-14-14-12-14-14-14-------------|
A|--/12-12-------------------------------------------------------|
E|---------------------------------------------------------------|

G|---------------------------------------------|
D|----------14-14-12-12-12-/-16-16-14-14-12-14-| < pause here
A|--/12-12-------------------------------------|
E|---------------------------------------------|

Bridge bit:

G|-------------------------------------------------------------------|
D|-------------------------------------------------------------------|
A|-0-0-0-0-0-0-0-2--2-2-2-2-2-2-2-4--4-4-4-4-4-4-4-5--5-5-5-5-5-5-5-5|
E|-------------------------------------------------------------------|

There you go, these are all the parts to the song :)









Suggest correction
Creating personal tab
Creating personal tab
You can edit any tab online and save it as your Personal.

You can edit, replace or remove any tab part or add personal notes – all changes will be seen only by you.

Personal tabs can be accessed anytime from any device, even offline.
Learn more »
comments
print report bad tab
1 comment total.
+1 reply
ElysiaDa 10 Apr 13, 2016 05:13 PM

Owenwxm,

Thanks for posting this, I like what you've done here! I think you got all the notes right. But I like to play it like this:

Intro (part 1) and Verse:

G|-------------------------------------------------
D|--------14-14-12-12-14-16-16-12-12-14-14-14-14-14
A|--12-12------------------------------------------
E|-------------------------------------------------

Intro (part 2) and Chorus:

G|-------------------------------------
D|-------------------------------------
A|-------------------------------------
E|--5-5-5-5-3-3-3-3-3-2-2-2-2-3-3-3-3-3

Bridge:

G|------------------------------------------
D|------------------------------------------
A|------------------------------------------
E|--5-5-5-5-7-7-7-7-7-9-9-9-9-10-10-10-10-10

I hope you enjoy this,
Elysia

guest
You may want to rate the tab now too:
select rating
Wanna post a correction for this tab? Suggest correction