Oops, an error
Loading. Please wait.

Your Loves Whore tab

version 2
version 2

Whole song

1,180 views 12 this week
no commentswrite comment
1 2 3 4 5
1 last vote to show rating
add to favorites
×
Save as Personal and add changes to this tab that will be seen only by you. Learn more ›
×
You can save this tab as Personal to edit and correct it or add notes. All changes will be seen only by you. Learn more »
launch autoscroll
font size
0
reset
how to read this tab
guitar tuner
edit
Autoscroll
slow
fast
+/-
esc
set tempo
stop
Author
Difficulty
intermediate
no capo

it may get weird/wrong towards the end but i think its pretty accurate

[INTRO] guitar 1 (palm muted)
e|---------------------------------------------------------------------------|
B|---------------------------------------------------------------------------|
G|---------------------------------------------------------------------------|
D|---12-11---5-7---12---12-11---5-7------------------------------------------|
A|-0-------0-----0----0-------0-----0--0-------------------------------------|
E|---------------------------------------------------------------------------|

[INTRO] guitar 2 (palm muted)i dont know how many times, sorry.
e|---------------------------------------------------------------------------|
B|--2------------------------------------------------------------------------|
G|--2------------------------------------------------------------------------|
D|--2------------------------------------------------------------------------|
A|---------------------------------------------------------------------------|
E|---------------------------------------------------------------------------|

e|--5---3---2---3----------------------------------------------------------------|
B|--5---3---2---3----------------------------------------------------------------|
G|--6---4---2---4----------------------------------------------------------------|
D|--7---5---4---5----------------------------------------------------------------|
A|--7---5---4---5----------------------------------------------------------------|
E|--5---3---2---3----------------------------------------------------------------|

[INTRO SOLO guitar 1]
e|-x-x-x-x-------------------------------------------------------------------------|
B|-x-x-x-x-------------------------------------------------------------------------|
G|-x-x-x-x---16-16b18r16-------16-16b18r16--19-------------------------------------|
D|-x-x-x-x----------------19----------------------14-14----------------------------|x2
A|-x-x-x-x-------------------------------------------------------------------------|
E|-x-x-x-x-------------------------------------------------------------------------|

[THING BEFORE VERSE guitar 1]
e|---------------------------------------------------------------------------|
B|---------------------------------------------------------------------------|
G|---------------------------------------------------------------------------|
D|-----/9--7-----------------------------------------------------------------|
A|---------------------------------------------------------------------------|
E|---------------------------------------------------------------------------|

[VERSE:] no guitar, just bass.

[CHORUS] (guitar 2 carries on the chords)
guitar 1:
e|----------------------------------------------------------------------------------|
B|-------2/5--2--2h3p2-------------------------/5-----------------------------------|
G|-2-4-2-----------------4--2--/4--2----2-4-2------4b--2----------------------------|
D|----------------------------------------------------------------------------------|
A|----------------------------------------------------------------------------------|
E|----------------------------------------------------------------------------------|

e|------------------------------------------------------------------------------|
B|-------2/5--2--2h3p2----------------------------------------------------------|
G|-2-4-2-----------------4--2--/4--2--------2-4-2-4b(semi)4b(full)-2------------|
D|------------------------------------------------------------------------------|
A|------------------------------------------------------------------------------|
E|------------------------------------------------------------------------------|

[VERSE 2:] no guitar, just bass.
then the guitar comes in an does this
e|-----------------------------------------------------------------------------|
B|-----------------------------------------------------------------------------|
G|-----------------------------------------------------------------------------|
D|--14-(x15)-11b---------------------------------------------------------------|
A|-----------------------------------------------------------------------------|
E|-----------------------------------------------------------------------------|

[BRIDGE/ CHILL BIT] guitar 1
e|-----12----12----12----12----12--------------------------------------------|
B|--10----10----10----10----10----9b-----------------------------------------|
G|---------------------------------------------------------------------------|
D|---------------------------------------------------------------------------|
A|---------------------------------------------------------------------------|
E|---------------------------------------------------------------------------|

guitar 2
e|---------------------------------------------------------------------------|
B|---------------------------------------------------------------------------|
G|---------------------------------------------------------------------------|
D|----7----7---9---9----11--11----12--12-------------------------------------|
A|---------------------------------------------------------------------------|
E|--5----5---7---7----9---9-----10--10---------------------------------------|

im not really sure about the next bit but fuck it.
guitar 1
e|---5---7---9---10----------------------------------------------------------|
B|---5---7---9---10----------------------------------------------------------|
G|---6---8---10--11----------------------------------------------------------|
D|---7---9---11--12----------------------------------------------------------|
A|---7---9---11--12----------------------------------------------------------|
E|---5---7---9---10----------------------------------------------------------|

guitar 2
e|---------------------------------------------------------------------------|
B|---------------------------------------------------------------------------|
G|---------------------------------------------------------------------------|
D|--12-11-12 (repeat)--------------------------------------------------------|
A|---------------------------------------------------------------------------|
E|---------------------------------------------------------------------------|

Then back into the intro riff and chords

one guitar carries on the intro chords whilst the other plays a variation on the intro solo thing:

e|---------------------------------------------------------------------------|
B|---------------------------------------------------------------------------|
G|---16-16b18r16-14-----16-16b18r16--14/7---9--------------------------------|
D|---------------------------------------------------------------------------|
A|---------------------------------------------------------------------------|
E|---------------------------------------------------------------------------|

then another solo thing
e|---------------------------------------------------------------------------|
B|---------------------------------------------------------------------------|
G|---------------------------------------------------------------------------|
D|--11-11-12-12-14-14-12-12-11-9-7-9-9/11/9-7-7/9/7--------------------------|
A|---------------------------------------------------------------------------|
E|---------------------------------------------------------------------------|

e|---------------------------------------------------------------------------|
B|---------------------------------------------------------------------------|
G|---------------------------------------------------------------------------|
D|--11-11-12-12-14-14-14-14-12-11-9-9/11/9-7-9-7-----------------------------|
A|---------------------------------------------------------------------------|
E|---------------------------------------------------------------------------|

************************************

| x  Dead note
| r  Release
| b  Bend
| /  Slide up
| h  Hammer-on
| p  Pull-off

************************************

            
            
Suggest correction
Creating personal tab
Creating personal tab
You can edit any tab online and save it as your Personal.

You can edit, replace or remove any tab part or add personal notes – all changes will be seen only by you.

Personal tabs can be accessed anytime from any device, even offline.
Learn more »
Give kudos to tab author, rate the tab!
1 2 3 4 5
comments
print report bad tab
guest
You may want to rate the tab now too:
select rating
Wanna post a correction for this tab? Suggest correction