Oops, an error
Loading. Please wait.

Steal Their Gold Tab

version 1
version 1

Whole song

219 views 3 this week
1 commentread comment
1 2 3 4 5
please rate
add to favorites
launch autoscroll
font size
0
reset
how to read this tab
guitar tuner
Autoscroll
slow
fast
+/-
esc
set tempo
stop
Help us to improve Ultimate-Guitar.com Take our survey!
×
Author
Difficulty
----------------------------------------------------------
               Wolf & Cub - Steal Their Gold
----------------------------------------------------------

http://www.wolfandcub.com/


Tabbed by Peter Kyvelos
Email: b0rn.to.raise.hell@hotmail.com

I tabbed this in about five minutes, so when I have time ill try and tab the solo and 
rest of the song.

p=pull off
( )= let note ring
b=bend

intro
----------------------|
----------------------|
----------------------|
----------------------|
----------------------|
--7--7--7--0--2b--(2)-|  x2

riff 1
-----------------------------|
-----------------------------|
-----------------------------|
-----------------------------|
-----------------------------|
--7--7--7--0--3p2p0--2b--(2)-|

riff 2
-------------------------------|
-------------------------------|
-------------------------------|
-------------------------------|
---------------5---5---7p5p0---|
-7-7-7-0-3p2p0---7---7-------7-|


-------------------------------|
-------------------------------|
-------------------------------|
-------------------------------|
---------------5---5---7p5p0---|
-7-5-7-0-3p2p0---7---7-------7-|
Suggest correction
Give kudos to tab author, rate the tab!
1 2 3 4 5
comments
print report bad tab
1 comment total.
0 reply
borntoraisehell 52 wrote on December 16 2006, 10:28 pm

By the way this is the live version from their J-TV gig.

guest
You may want to rate the tab now too:
select rating
Wanna post a correction for this tab? Suggest correction