Oops, an error
Loading. Please wait.

Steal Their Gold Tab

version 2
version 2

Whole song

273 views 1 this week
1 commentread comment
1 2 3 4 5
please rate
add to favorites
launch autoscroll
font size
0
reset
how to read this tab
guitar tuner
Tab Pro tools
  • play this tab
  • loop segment
  • change instrument
  • show fretboard
  • metronome
×
Best way to learn
"Steal Their Gold"
Autoscroll
slow
fast
+/-
esc
set tempo
stop
Contributor
Difficulty
------------------------------------------
      Wolf & Cub - Steal Their Gold
------------------------------------------

Album: Vessels

Email: b0rn.to.raise.hell@hotmai.com

My other tab was a bit of the live version on J-TV but this one is the album version.

Intro
----------------------|
----------------------|
----------------------|
----------------------|
----------------------|
--7--7--7--7--7p0-2---|

Main Riff
-------------------------------------|
-------------------------------------|
-------------------------------------|
-------------------------------------|
--------------------5---5---7p5------|
--7--7--7--7--7p0-2---7---7-----7-7--|

w/ delay effect
-----12~--21~------12~-20~-16~-19~---|
-12~----------12~--------------------|
-------------------------------------|
-------------------------------------|
-------------------------------------|
-------------------------------------|

-------------------------------------|
-------------------------------------|
-------------------------------------|
-------------------------------------|
--------------------5---5---7p5------|
--7--7--7--7--7p0-2---7---7-----7-7--|


w/ wah wah effect
----------------------------|
----------------------------|
----------------------------|
-9-9-9----------------------|
-9-9-9---5h7p5h7p5h7p5h7p5--|
-7-7-7----------------------|


----------------------------|
----------------------------|
----------------------------|
-9-9-9----------------------|
-9-9-9---5b~----------------|
-7-7-7----------------------|


---------------------------------------|
---------------------2h4p2h4p2h4p2h4p2-|
----------------5----------------------|
-9-9-9--------5---7--------------------|
-9-9-9---5h7---------------------------|
-7-7-7---------------------------------|


-------------------------------------|
-------------------------------------|
-------------------------------------|
-------------------------------------|
--------------------5---5---7p5------|
--7--7--7--7--7p0-2---7---7-----7-7--|


----------------------------------------|
----------------------------------------|
----------------------4h6p4h6p4h6p4h6p4-|
-9-9-9--9-9-9--9-9-9--------------------|
-9-9-9--9-9-9--9-9-9--------------------|
-7-7-7--7-7-7--7-7-7--------------------|


-------------------------------------|
-------------------------------------|
-------------------------------------|
-------------------------------------|
--------------------5---5---7p5------|
--7--7--7--7--7p0-2---7---7-----7-7--|



         This part is played on bass
--------|-----------------------------------|
--------|-----------------------------------|
--------|-----------------------------------|
-9-9-9--|-----------------------------------|
-9-9-9--|-7br5-5--5---5---7p5---------------|
-7-7-7--|-----------7---7-----7-7-----------|  
 |
 |
 |
\ /
 .
----------------------------|
----------------------------|
--9b~-7-7--7---7---9p7-7-7--|
-------------9---9----------|
----------------------------|
----------------------------|


w/delay effect
--------------------------------------|
--7---10---12---15---17---20--19-(19)-|
--------------------------------------|
--------------------------------------|
--------------------------------------|
--------------------------------------|

bass plays for a little bit.


--------------------------------------|
--------------------------------------|
--------------------------------------|
--------------------------------------|
----5---5---7p5-----------------------|
--7---7---7-----7-7-------------------|


-------------------------------------|
-------------------------------------|
-------------------------------------|
-------------------------------------|
--------------------5---5---7p5------|
--7--7--7--7--7p0-2---7---7-----7-7--|    x2


-------------------------------------------------|
-------------------------------------------------|
-------------------------------------------------|
-----------------------------------------9-9-9---|
--------------------5---5--5--7br5-------9-9-9---|
--7--7--7--7--7p0-2---7------------7-7---7-7-7---|


Change of tempo and beat part.

Bass plays for a bit.

Guitar makes fuzzy,wah wah distortion sounds.


Solo
w/delay effect and wah wah
-------------------------------------------|
-------------------------------------------|
--11b-11-(11)--11h12p11h12p11h12p11h12p11--|
-------------------------------------------|
-------------------------------------------|
-------------------------------------------|

---------------------------------------------|
-16b-16-(16)--15h16p15h16p15h16p15h16p15--14-|
---------------------------------------------|
---------------------------------------------|
---------------------------------------------|
---------------------------------------------|

---------------------------------------------|
---------------------------------------------|
--11b-11-(11)--11h12p11h12p11h12p11h12p11-14-|
---------------------------------------------|
---------------------------------------------|
---------------------------------------------|

----------------------------------------------|
-16b-16-(16)--15h16p15h16p15h16p15h16p15--18b-|
----------------------------------------------|
----------------------------------------------|
----------------------------------------------|
----------------------------------------------|

----------------------------------------------|
-18b-18b-18b-18br17---------------------------|
--------------------17--17h18p17--------------|
----------------------------------------------|
----------------------------------------------|
----------------------------------------------|

--------------------------------------------------|
--------------------------------------------------|
17p16h17p16h17p16h17p16h17b-17-16-17h16-17-16-17b-|
--------------------------------------------------|
--------------------------------------------------|
--------------------------------------------------|


----------------------------------------------------------|
-------------------------------------------------------17-|
17p16h17p16h17p16h17p16h17b--17p16h17p16h17p16h17p16h-----|
----------------------------------------------------------|
----------------------------------------------------------|
----------------------------------------------------------|


--------------------------------------------------------------|
17p16h17p16h17p16h17p16h17b(19)--19-19-19-17-19b(21)-r19-19---|
--------------------------------------------------------------|
--------------------------------------------------------------|
--------------------------------------------------------------|
--------------------------------------------------------------|


--------------------------------------------------------------|
--------------------------------------------------------------|
--------------------------------------------------------------|
-16b-(18)-r16-16p14h16h14h16h14h16b-(18)-r16------------------|
----------------------------------------------16--------------|
--------------------------------------------------------------|


---------------------------------------------------------------|
---------------------------------------------------------------|
---------------------------------------------------------------|
---------------------------------------------------------------|
-16-16-16-16-16-16-16-16-16-16-14-16-16br-16-14-16-16-16-16-16-|
---------------------------------------------------------------|



-----------------------4--4--------------------------------------|
-----------------------4--4--------------------------------------|
--------------- \-/----4444--------------------------------------|
-16br-16-14------\--------4--------------------------------------|
------------16--/-\-------4--------------------------------------|
--------------------------4--------------------------------------|


---------------------------------------------------------------|
---------------------------------------------------------------|
---------------------------------------------------------------|
---------14----------------------------------------------------|
--14-16-----16-14-----5p3p0--5p3p0-----------------------------|
---------------------------------------------------------------|

---------------------------------------------------------------|
--7-7-7-7-7-7--9-9-9-9-9-9-12-12-12-(12)-12\-------------------|
---------------------------------------------------------------|
---------------------------------------------------------------|
---------------------------------------------------------------|
---------------------------------------------------------------|


After this some fuzz and feedback play for a bit.


Well that's all of it. it's about 90-99% correct so yeh.


Release the Peace. \m/ >_< \m/
comments
We did not receive enough feedback on this tab! Please rate:
print report bad tab
1 2 3 4 5
1 comment total.
0 reply
borntoraisehell wrote on December 18 2006, 07:14 pm

a mistake i just picked out is at the end with the 5p3p0 it's mean to be on the B string not A.sorry

I want to post or [tab]
guest
You may want to rate the tab now too:
select rating
Please do not post tabs as comments. Select "correction" instead!