Oops, an error
Loading. Please wait.

Grounds For Divorce tab

10,244 views 9 this week
2 commentsread comments
1 2 3 4 5
x 4
add to favorites
×
Save as Personal and add changes to this tab that will be seen only by you. Learn more ›
×
You can save this tab as Personal to edit and correct it or add notes. All changes will be seen only by you. Learn more »
launch autoscroll
font size
0
reset
how to read this tab
guitar tuner
edit
Autoscroll
slow
fast
+/-
esc
set tempo
stop
Author
Difficulty
Just saw these guys live - best show ever

Grounds for Divorce

Intro guitar part (Dan's part) and is played throughout the first verse:
e|-11-8-11-8-11-8-11-8-8-8-| 
B|-9--9-9--9-9--9-9--9-9-9-| 
G|-------------------------| 
D|-------------------------| 
A|-------------------------|
E|-------------------------|

Intro keyboard part (Spencer's part) and also played almost the whole song (at least the verses)
e|----------------------------------------------------------------------| 
B|----------------------------------------------------------------------| 
G|---3----------------3----------------3--------------------------------| 
D|-6---6-5---3------6---6---3--------6---6-5---3------0-----0-----------| 
A|---------6--------------6------------------6----------3-----3---------|
E|-------------4-4------------4-4-4--------------4-4------1-----1-1-1---|

There is also a second keyboard part (Hadje's part)that comes in randomly during the verse
e|-16----16----16-13-11-8-11-13-16| 
B|--------------------------------| 
G|--------------------------------| 
D|--------------------------------| 
A|--------------------------------|
E|--------------------------------|

Chorus:
C#                   
But the dialing is dead
G#                    
We hit it on the head
Cm                       Fm
It looked like a wedding cake
C#
But the dialing is dead
G#                       Fm
We hit it on the head 
Cm
It looked like a newly wed

Towards the end Spencer plays his same intro part but an octave higher.

That's it.  Let me know if it needs any corrections.
Suggest correction
Creating personal tab
Creating personal tab
You can edit any tab online and save it as your Personal.

You can edit, replace or remove any tab part or add personal notes – all changes will be seen only by you.

Personal tabs can be accessed anytime from any device, even offline.
Learn more »
comments
print report bad tab
2 comments total.
0 reply
saywhatagain 60 Oct 24, 2005 03:37 PM

great job. this was the next one I was working on, but you beat me to it. Such a good song.

-1 reply
philoskapher 31 Jan 11, 2006 02:52 AM

well done. almost perfect.BUT.
i think instead of
D-0-----0--------
A---3-----3------
E-----1-----1-1-1
it is
D----------------
A-4-3----4-3-----
E-----1-----1-1-1.
but good job. wolf parade rocks.

guest
You may want to rate the tab now too:
select rating
Wanna post a correction for this tab? Suggest correction