Oops, an error
Loading. Please wait.

Language City Bass Tab

1 view 1 this week
no commentswrite comment
1 2 3 4 5
3 more votes to show rating
add to favorites
launch autoscroll
font size
0
reset
guitar tuner
Autoscroll
slow
fast
+/-
esc
set tempo
stop
Help us to improve Ultimate-Guitar.com Take our survey!
×
Author
Difficulty
Tuning
intermediate
D A D G B E
About this tab version
Thorough, fun to play, tab. Was this info helpful? Yes No
One of my all time absolute favorite bands, now together again!:

[Intro]
no bass

[Verse / chorus]
0:21: no bass

0:21 "we were tired..."
G|------|------|------|-----|
D|------|------|------|-----|
A|-3----|-3----|-1----|-----|
D|----5-|----5-|----3-|-5x8-|

"Audiences, the same program is always on..."
G|-----------------------------|
D|-----------------------------|
A|-6-6-5-5-3-3-1-1-------------|
D|-----------------5-5-5-5-5-5-|x2

G|------|------|------|-----|
D|------|------|------|-----|
A|-3----|-3----|-1----|-----|
D|----5-|----5-|----3-|-5x8-|

[Bridge]
"All is working.."
G|-------------------------|
D|-------------------------|
A|-1s/8s--10x2-5x2-6x2-1x2-|
D|-------------------------|x2

G|---------------------|
D|---------------------|
A|-1s/8s--10x2-5x2-6x1-|
D|---------------------|

[Verse/chorus]
"Language city is a bad old place.."
G|-----------------------------|
D|-----------------------------|
A|-6-6-5-5-3-3-1-1-------------|
D|-----------------5-5-5-5-5-5-|x2

G|------|------|------|-----|
D|------|------|------|-----|
A|-3----|-3----|-1----|-----|
D|----5-|----5-|----3-|-5x8-|

[Interlude]

[Break] ("I've been here so long my heart is a parking lot..."): No bass

"..But the fields..."
G|------|------|------|-----|
D|------|------|------|-----|
A|-3----|-3----|-1----|-----|
D|----5-|----5-|----3-|-5x8-|
"All is working..."
G|-------------------------|
D|-------------------------|
A|-1s/8s--10x2-5x2-6x2-1x2-|
D|-------------------------|x3

[Up-beat part] (2:46):

[Bridge]
G|-------------------------|
D|-------------------------|
A|-1s-33/55/66-8s-66\55\33-|
D|-------------------------|x4

G|-----|
D|-----|
A|-1s--|
D|-----|

[Break 2] (bass solo): 3:50
you can play this with the high or low tones:

Lower
G|------------------|-----------------------|
D|------------------|-----------------------|
A|-1--3--5----------|-----------------------|
D|-----------0h1~---|-1h3-5~-7h8~-0h1~-1/10-|

Higher
G|------------------|-------------------------------|
D|------------------|-------------------------------|
A|-13-15-17---------|-------------------------------|
D|-----------12h13~-|-13h15-17~-19h20~-12h13--12/22-|

Play until the end (after the queit part, comes a part where you'll need to hit each note several times)



************************************

| x  Dead note
| h  Hammer-on
| /  Slide up
| \  Slide down
| ~  Vibrato
| s  Slap

************************************
Suggest correction
Give kudos to tab author, rate the tab!
1 2 3 4 5
comments
print report bad tab
guest
You may want to rate the tab now too:
select rating
Wanna post a correction for this tab? Suggest correction