Oops, an error
Loading. Please wait.

In War Tab

7 views 1 this week
no commentswrite comment
1 2 3 4 5
3 more votes to show rating
add to favorites
launch autoscroll
font size
0
reset
how to read this tab
guitar tuner
Autoscroll
slow
fast
+/-
esc
set tempo
stop
Help us to improve Ultimate-Guitar.com Take our survey!
×
Author
Difficulty
Tuning
novice
C F A# D# G C
About this tab version
This tab shows how to play the intro of the song "In War" by Wolfchant. Was this info helpful? Yes No
Band: Wolfchant
Album: Determined Damnation (April 2009)
Song: In War (Track 5) (Intro only)
Tabbed by: MetalWarrior34


Notes: I know that this intro can be played in standard E, but all songs by Wolfchant (including this one)
use the standard C tuning.


c |--------------------------------------|--------------------------------------|
G |------------7--8--7-----7-------------|--7----7--8--10----7------------------|
D#|--9-----9------------9----------------|----------------------7---------------|
A#|------9-------------------------------|--------------------------------------|
F |--------------------------------------|--------------------------------------|
C |--------------------------------------|--------------------------------------|

c |--------------------------------------|--------------------------------------|
G |------------7--8p(7)------7-----------|--(7)--8--8p7-------------------------|
D#|--9-----9-------------9---------------|--------------7--9----9---------------|
A#|------9-------------------------------|--------------------------------------|
F |--------------------------------------|--------------------------------------|
C |--------------------------------------|--------------------------------------|

c |--------------------------------------|--------------------------------------|
G |------------7--8--7-----7-------------|--7-----7--8--10--8--7----------------|
D#|--9-----9------------9----------------|------7-----------------7-------------|
A#|------9-------------------------------|--------------------------------------|
F |--------------------------------------|--------------------------------------|
C |--------------------------------------|--------------------------------------|

c |--------------------------------------|--------------------------------------|
G |----------7--8--7-----7---------------|--7/8-8--8p7--------------------------|
D#|--9----9-----------9------------------|-------------7--9----9----------------|
A#|--------------------------------------|--------------------------------------|
F |--------------------------------------|--------------------------------------|
C |--------------------------------------|--------------------------------------|

Thanks for viewing this tab!


************************************

| () Ghost note
| p   Pull-off
| /   Slide up

************************************
Suggest correction
Give kudos to tab author, rate the tab!
1 2 3 4 5
comments
print report bad tab
guest
You may want to rate the tab now too:
select rating
Wanna post a correction for this tab? Suggest correction