Oops, an error
Loading. Please wait.

Cathedral Of Space Tab

747 views 1 this week
no commentswrite comment
1 2 3 4 5
please rate
add to favorites
launch autoscroll
font size
0
reset
how to read this tab
guitar tuner
Autoscroll
slow
fast
+/-
esc
set tempo
stop
Help us to improve Ultimate-Guitar.com Take our survey!
×
Difficulty
Tuning
intermediate
D# G# C# F# A# D#
Hats off to wolfgang for making great music!

intro
Eb|---3~~------------------3---3-------------------------------|
Bb|---1~~----------------1-1--1-1-------1----3p1--------1------|
Gb|---0~~---2p0-0--0-0-0---------0-----2--2p0---2p0---0--------|
Db|---x~~-----------0-----------------3------------3-----------|
Ab|---3~~------------------------------------------------------|
Eb|-------------------3-----------------------------3----------|

Eb|------------------------------------------------------------|
Bb|-----------------8---12-------------------------------------|
Gb|--------------5/7-7/9--12-----------------------------------|
Db|-------------------------12\--------------------------------|
Ab|------------------------------------------------------------|
Eb|------------------------------------------------------------|

she drives away...
Eb|-------------------------3---3----------------------3-------|
Bb|-----1-------1---------1-1--1-1-----1------1------1-1-------|
Gb|----2---2p0-0--2p0---0---------0---2--2p0-0-2p0--0----------|
Db|---3--------------3---------------3------------3------------|
Ab|------------------------------------------------------------|
Eb|-------------------3----------------------------3-----------|

Eb|---------------------3-----------------------3~~------------|
Bb|----1----3p1-------1-1----------1----1----1--1~~------------|
Gb|---2--2p0---2p0---0------------2----0----0------------------|
Db|--3------------3--------------3----2----0-------------------|
Ab|------------------------------------------------------------|
Eb|----------------3-------------------------------------------|

she's going gone...
Eb|-------------------------3--------------------------3---3---|
Bb|---1~--------1---------1-1-3/5-3----1------1------1-1--1-1--|
Gb|---2~---2p0-0--2p0---0-------------2--2p0-0-2p0--0--------0-|
Db|---3~-------------3---------------3------------3------------|
Ab|------------------------------------------------------------|
Eb|-------------------3----------------------------3-----------|

Eb|---------------------3-----------------------3~~------------|
Bb|----1------1-------1-1----------1----1----1--1~~------------|
Gb|---2--2p0-0--2p0--0------------2----0----0------------------|
Db|--3------------3--------------3----2----0-------------------|
Ab|------------------------------------------------------------|
Eb|----------------3-------------------------------------------|

sometimes the same scene...
Eb|---------5------3-----------5-------------------------------|
Bb|-----3-------5---5------3-----------------------------------|
Gb|-------4------5---5-------4---------------------------------|
Db|----5-------5----------5-------5----------------------------|
Ab|--5---------3--------5---------3----------------------------|
Eb|--3------------------3---------------------------\----------|

so we let her go...
Eb|------------------------------------------------------------|
Bb|------------------------------------------------------------|
Gb|------------------------4-4-4~~--5~~------------------------|
Db|---------4--7--5--------4-4-4~~--5~~------------------------|
Ab|------5--2--5--3-5------2-2-2~~--3~~------------------------|
Eb|------3----------3-------------------------------\----------|
chorus        4x

asking for motion...
Eb|------------------------------------------------------------|
Bb|------------------------------------------------------------|
Gb|----------3h5p3-----5-5--5/7-5------------------------------|
Db|-----5--5------5-3--5-5--5/7-5------------------------------|
Ab|---5-5--5---------5-----------------------------------------|
Eb|-------------------3----------------------------------------|
              6x

she's on the road tonight...
Eb|------------------------------------------------------------|
Bb|------------------------------------------------------------|
Gb|------------------------4-4-4~~--5~~------------------------|
Db|---------4--7--5--------4-4-4~~--5~~------------------------|
Ab|------5--2--5--3-5------2-2-2~~--3~~------------------------|
Eb|------3----------3-------------------------------\----------|

solo

movin' south on a north-bound train...
Eb|------------------------------------------------------------|
Bb|------------------------------------------------------------|
Gb|----------3h5p3-----5-5--5/7-5------------------------------|
Db|-----5--5------5-3--5-5--5/7-5------------------------------|
Ab|---5-5--5---------5-----------------------------------------|
Eb|-------------------3----------------------------------------|
              6x
repeat chorus

ending chords
Eb|---------------------------------------------------------|
Bb|---------------------------------------------------------|
Gb|---------------------------------------------------------|
Db|-----4-7-5---5--8-7-5------------------------------------|
Ab|---5-2-5-3-5-3--6-5-3--5---------------------------------|
Eb|---3-------3-----------3---------------------------------|

tabbed by jcacnio
Suggest correction
Give kudos to tab author, rate the tab!
1 2 3 4 5
comments
print report bad tab
guest
You may want to rate the tab now too:
select rating
Please do not post tabs as comments. Select "correction" instead!