Oops, an error
Loading. Please wait.

Darkness Fell Tab

version 2
version 2

Whole song

5,328 views 9 this week
no commentswrite comment
1 2 3 4 5
please rate
add to favorites
launch autoscroll
font size
0
reset
how to read this tab
guitar tuner
Autoscroll
slow
fast
+/-
esc
set tempo
stop
Help us to improve Ultimate-Guitar.com Take our survey!
×
Author
-------------------------------------------------------------------------------
			     DARKNESS FELL - WOLFGANG
-------------------------------------------------------------------------------
Tabbed by:toto crespo
Email:grandmastercool8@yahoo.com

Tuning:tunedown halfstep (Eb,Ab,Db,Gb,Bb,Eb)


intro



     D                                  A                         C

                                        let ring------]           ---------]    

e|---------------------------------------------------5-----(5)----3----------|
B|---7-h8-p7--------7-7------------------------5-----------(5)----5----------|
G|---7--7--7--9p7---7-7---7--7---9------6---------6---------------5----------|
D|---7-h9-p7-----9--7-7---7-h9-9--------7---7---------------------5----------|
A|---------------------------------9----7-------------------------3----------|
E|--------------------------------------5------------------------------------|




                                       G
                                        let ring------]
                                           
e|---------------------------------------------------------------------------|
B|--------------5-h6--p5----------7------8-----------------------------------|
G|--------------5--5---5---7p-5---7-/9---7---7-/9--7-------------------------|
D|--------------5-h7--p5---7p-5---7-/9-------7-/9--7-------------------------|
A|----3-/5---5--------------------------------------------5/--8-7-6-5----5~--|
E|---------------------------------------------------------------------------|




            G5                                                                   


      E  A  D  G  B  E    hi to all wolves out there...this song was      
      x_______________    my favorite song from wolfgang. actually its         
      :  :  :  :  :  :    a little bit difficult at first but dont         
   v  :__o__o__:__:__:    worry! practice makes perfect. Ofcourse      
      :  :  :  :  :  :    you can reshuffle all gtr lines. bahala ka      
      :__:__:__:__:__:    na, deskarte mo. you dont have to copy all      
      :  :  :  :  :  :    this. bahala ka na rin sa adlib, kung gusto      
  vII :__:__:__o__:__:    mong gayahin ayos, kung ayaw mo mas mabuti     
      :  :  :  :  :  :    .atleast you can exercise your creativity.       
      :__:__:__:__o__:    ah! oo nga pala, hindi po to perpekto, sorry    
      :  :  :  :  :  :    tao lang. si manuel legarda lang po ang naka     
      :__:__:__:__:__:    buo nito ng tama di ba? pero its a little bit   
                          closer sa original. 5 yrs. ko yata minaster to.
                          Hi nga pala sa aking mga kambal SOLITA and 
                          SHARON.Daddy missed you very much...ooh yeah
	  

            F5

      E  A  D  G  B  E                      
      x_______________    		   
      :  :  :  :  :  :			    
  III :__o__o__:__:__:			   
      :  :  :  :  :  :			    
      :__:__:__:__:__:			    
      :  :  :  :  :  :		    	
    V :__:__:__o__:__:		    
      :  :  :  :  :  :		    
      :__:__:__:__o__:			    
      :  :  :  :  :  :			    
      :__:__:__:__:__:			   
      					    
                         		    
                          		   
	  				   





Verse

      D                           A                       C
                                  let ring-------]        -----------]
	    
e|----10--------------------------5-----------5-----------3------------------|
B|----7-----------7-h8-p7---------5-----5-----------------5------------------|
G|----7-----------7--7--7--9p-7---6--6-----6-------(6)----5----5-------------|
D|----7-----------7-h9-p7---------7----------------(7)----5------------------|
A|---------5-/7-7-----------------7-----------------------3------------------|
E|--------------------------------5------------------------------------------|

  And so she woke up......
  There was this king......




				       G
                                        let ring--------]

e|---------------------------------------------------------------------------|
B|--------------5-h6--p5----------7h-8---8-----------------------------------|
G|--------------5--5---5---7p-5---7--7---7----7-/9--9------------------------|
D|--------------5-h7--p5----------7h-9--------7-/9--9------------------------|
A|-----3--/5-5----------------------------------------------5/-8-7-6-5---5~--|
E|---------------------------------------------------------------------------|



   D                           A                      C
   let ring---]                let ring-------------]

e|----------------------------------5----7_5---7p5--------3------------------|
B|-7---------7-h8-p7---8p-7-------5---5------5-----5-------------------------|
G|-7---------7--7--7---9p-7----6------------------------5---7-p5---5---------|
D|-7---------7-h9-p7--------7--7----------------------5-----------5--------7-|
A|-5---5/-7-7------------------7--------------------------------------5/7----|
E|-----------------------------5---------------------------------------------|

   And though her mind........
   He rode alone..........




         G   

e|----------------------------|
B|-------8--------------------|         
G|--5/7--9--7/9--9------------|     Repeat this gtr line until chorus:        
D|--5/7-----7/9--9------------|
A|------------------5/8-7-6-5-|
E|----------------------------|





Chorus



   G   F    G    G    G   F   G   G   C   D     C   D     G     F     G    G

e|---------------------------------------------------------------------------|
B|-8---6----8----8----8---6---8---8---5---7-----5---7-----8-----6-----8----8-|
G|-7---5----7----7----7---5---7---7---5---7-----5---7-----7-----5-----7----7-|
D|-5---3----5----5----5---3---5---5---5---7-----5---7-----5-----3-----5----5-|
A|-5---3----5----5----5---3---5---5---3---5-----3---5-----5-----3-----5----5-|
E|---------------------------------------------------------------------------|



Verse


    D                    A                C
    let ring            let ring------]   let ring-----------------]
     

e|--10------------------------5---------------------------------------------|
B|--7----7h8-7--------------5---5---5-----5------5--------------------------|
G|--7----------9-7--7h9--6--------6-------5-----------5--7p-5-----5---------|
D|--7--------------------7----------------5---5-----5----------5------------|
A|-----------------------7--------------------------------------------------|
E|-----------------------5--------------------------------------------------|

  Oh so much better..........




       G                                 D                             A
                    ----]               let ring                    -------]                



e|---------------------------------------------------------------------------|
B|---7-h8---8----------------------------7-----------7-h8---7----------------|
G|---7--7---7---7-h9---7-----------------7-----------7--7---7---9p-7---6-----|
D|---7-h9-------9--9---7-----------------7-----------7-h9---7---9p-7---7-----|
A|--------------------------8---7-6-5----5---5/7--7--------------------7-----|
E|---------------------------------------------------------------------5-----|

                                      And now this forest......
                                      She placed her hands.......





                                     C
  -------------------------------]  let ring----------------------------]      

e|-----5-------7--5-------7--5------------8----------------------------------|
B|--------5---------5-----------------------8----8---------------------------|
G|----6------6---------6--------6----5--------5-----5-----5h7-5--5h7----5----|
D|-----------------------------------5-----------------5---------------------|
A|---------------------------------------------------------------------------|
E|---------------------------------------------------------------------------|





e|---------------------------------------|
B|---7-h8---8----------------------------|
G|---7--7---7---7--7---7-----------------|  Repeat this gtr line until 
D|---7-h9-------7-h9---7-----------------|  the 2nd chorus
A|-----------------------------8---7-6-5-|
E|---------------------------------------|





Gtr. Solo


	Legend
	
	h:  hammer on
	p:  pull off
	^:  bend
	~:  vibrato
	/ or\:   slide
	( ): ghost note
	>:   bend and release
        x:   Mute note

              D                                 A

  [sweep]
e|-----10h12--12^-12^-12^-12^-12^---12^----10---12~~----------10-------------|
B|---11--------------------------------------------------10h12----13--12--10-|
G|-12------------------------------------------------------------------------|
D|---------------------------------------------------------------------------|
A|---------------------------------------------------------------------------|
E|---------------------------------------------------------------------------|



                         C                               G                 D


e|---------------------------------------------------------------------------|
B|---------------------------------------------------------------------------|
G|-12--11--9--11--11/12--12~~----------------------------9-------------------|
D|---------------------------------------------9---9--7-----7h9-9^--7h-9---7-|
A|------------------------------8h10-8--7h8--7---7---------------------------|
E|---------------------------------------------------------------------------|



   D                                A

e|---------------------------------------------------------------------------|
B|------------------------10--------------------8--8h10p8--8-----------------|
G|--------7-----7---7--9^-----9^--7-9~--9~~--7h9--9------9--9-7-7h9p7--7-----|
D|-5-/7-9---7h-9--9---------------------------------------------------9-9-7--|
A|---------------------------------------------------------------------------|
E|---------------------------------------------------------------------------|



              C                                 G

e|------------------------------------------------------------------8---8h10-|
B|------------------------------------------------------8--8h10-8h10--10-----|
G|--------------------------------------------7--7h9-7h9--9------------------|
D|--7h9p7\5------------------5-5(6)7-7(8)9-7h9--9----------------------------|
A|------------3(4)5-5(6)7-5h7------------------------------------------------|
E|---------------------------------------------------------------------------|




     D                    G                         F

e|--10^--10^10~~10(-\-)------------------------------------------------------|
B|------------------------------------------------10h12-10\9---7h9p7---------|
G|------------------------------9h12-12\11-11/12---------------------9p7-7---|
D|------------------------10/12----------------------------------------------|
A|---------------------------------------------------------------------------|
E|---------------------------------------------------------------------------|



     G                                     G                         F

e|---------------------------------------------------------------------------|
B|---13/15~-13-12-13-12------------------------------------------------------|
G|----------------------14p12-12--12~~------------12------12-----12--14^-14>-|
D|--------------------------------------11/12--14---12-14----14_-------------|
A|---------------------------------------------------------------------------|
E|---------------------------------------------------------------------------|




         G                    C                  D

e|---------------------------------------------------------------------------|
B|------------15^---15~~----13h15p13-12-13-12--------------13/15---13~~------|
G|-12----12-----------------------------------14-12-----12-------------------|
D|----14--------------------------------------------14-----------------------|
A|---------------------------------------------------------------------------|
E|---------------------------------------------------------------------------|



   C                  D                                          G

e|-------------------------------------------------------------------12------|
B|-12h13p12------12---------------------------------------------13/15--------|
G|-----------14----14-12----12--14^--12-14-----14-14p12----12----------------|
D|-----------------------14-----------------------------14-------------------|
A|---------------------------------------------------------------------------|
E|---------------------------------------------------------------------------|




       F                G               G

e|--13/15--13~~---13-13p12---12----15^-15^-15^---15~~~-----------------------|
B|-------------------------13------------------------------------------------|
G|---------------------------------------------------------------------------|
D|---------------------------------------------------------------------------|
A|---------------------------------------------------------------------------|
E|---------------------------------------------------------------------------|





Verse


      D          A	    C				   D
	   
     let ring--------------------------------------------------]
	
e|----5----------5------------3----------------------------------------------|
B|----7----------5------------5-----------7h8----8------------7--------------|
G|----7----------6------------5-----------7-7----7----7-/-9---7--------------|
D|----7----------7------------5-----------7h9---------7-/-9---7--------------|
A|----5----------7------------3----------------------------------------------|
E|---------------5-----------------------------------------------------------|

   Oh tell me a story............





      D               A		       C			       D

		    let ring----------------------------------------]

e|---5----------------------5---------------------8--------------------------|
B|---7--------7-----------5----5--------------3-----3--7h8---8----------7----|
G|---7------7----7---------------6---------3-----------7-7---7--7-/-9---7----|
D|---7-------------7----7----------7----3--------------7h9------7-/-9---7----|
A|---5---5-----------7-------------------------------------------------------|
E|-------------------5-------------------------------------------------------|

   Just whisper in my ear.......          


	


  then repeat  gtr line verse before the solo then chorus till end....
		






===============================================================================
Suggest correction
What's this?
You can suggest a correction to this tab. Community and Mods will review your correction and vote to approve or reject it.
comments
We did not receive enough feedback on this tab! Please rate:
print report bad tab
1 2 3 4 5
guest
You may want to rate the tab now too:
select rating
Please do not post tabs as comments. Select "correction" instead!