Oops, an error
Loading. Please wait.

Hiwaga Tab

1,029 views 1 this week
no commentswrite comment
1 2 3 4 5
please rate
add to favorites
launch autoscroll
font size
0
reset
how to read this tab
guitar tuner
Autoscroll
slow
fast
+/-
esc
set tempo
stop
Help us to improve Ultimate-Guitar.com Take our survey!
×
Author
Song         : Hiwaga
Band         : Wolfgang
Tabbed By    : Brandon Philip Llapitan
E-Add/Cp No. : brandon_rakista@yahoo.com
Tuning       : Flat Tuning


Solo 1 : (00:00-00:22)
eb-------------------------------8--------------------------------------------|
bb--------------------------8b10---r8-----------15-13---------------20-18-17~-|
gb------5/7--7b9r7-5---5-7-------------------12-------14~--------17-----------|
db-5/7~--------------7-----------------12/14---------------17/19--------------|
ab----------------------------------------------------------------------------|
Eb----------------------------------------------------------------------------|

eb-------------------------------------------------------------------------------------|
bb-18p17----17--17p15----15--15p13----13--13p12----12----------------------------------|
gb-------19-----------17-----------14-----------14-----12p10p9----9--10p9p7----7--5/7~-|
db-------------------------------------------------------------12-----------10---------|
ab-------------------------------------------------------------------------------------|
Eb-------------------------------------------------------------------------------------|


Solo 2 : (01:04-01:27)
eb--------------------------------------------7-8-7-------8--10-10b12r10-8----8--10-10~-|
bb----------17~----------15~-------------------------8/10------------------10-----------|
gb-19-17--------17-14--------10p9p7----7-9-10-------------------------------------------|
db-------19-----------17------------10--------------------------------------------------|
ab--------------------------------------------------------------------------------------|
Eb--------------------------------------------------------------------------------------|

eb-10p9p8----8-10-8~------------------------12--------13--------15--------13----------------17b19-r17----15-17-17b19-r17~-|
bb--------10-------------------8----------------------------------------------18-17-15---15-----------17------------------|
gb-----------------------5-7b9---r7~--12/14-----14/16-----15/17-----14/16--------------17---------------------------------|
db-------------------5/7--------------------------------------------------------------------------------------------------|
ab------------------------------------------------------------------------------------------------------------------------|
Eb------------------------------------------------------------------------------------------------------------------------|

Guitar Legend :
/ = Slide
~ = Vibrato
b = Bend
r = Release
p = Pull
Suggest correction
What's this?
You can suggest a correction to this tab. Community and Mods will review your correction and vote to approve or reject it.
comments
We did not receive enough feedback on this tab! Please rate:
print report bad tab
1 2 3 4 5
guest
You may want to rate the tab now too:
select rating
Please do not post tabs as comments. Select "correction" instead!