Oops, an error
Loading. Please wait.

Tulisan Tab

version 1
version 1

Solo

Whole song

10 views 1 this week
no commentswrite comment
1 2 3 4 5
2 more votes to show rating
add to favorites
launch autoscroll
font size
0
reset
how to read this tab
guitar tuner
Autoscroll
slow
fast
+/-
esc
set tempo
stop
Help us to improve Ultimate-Guitar.com Take our survey!
×
Author
Difficulty
Tuning
intermediate
D# G# C# F# A# D#
TULISAN – WOLFGANG

Tabbed by: Monstoy Guitar
Watch out for the video tutorial of this tab on my YouTube channel soon.


[Solo]

e|-------------------------------------------------------------------------|
B|---------16-16-----------------------------------------------------------|
G|---2/----17-17-----------------------------------------------------------|
D|---------------19\-------------------------------------------------------|
A|-------0-----------------------------------------------------------------|
E|-------------------------------------------------------------------------|

e|---------17—-17--17------------------------------------------------------|
B|---------20b-20b-20b-----------------------------------------------------|
G|---2/--------------------x\----------------------------------------------|
D|-------------------------x\----------------------------------------------|
A|-------0-----------------x\----------------------------------------------|
E|-------------------------------------------------------------------------|

e|-------------------------------------------------------------------------|
B|-----5-5--------------------------------------5-8-7-5--------------------|
G|-----5-5-7brbp5h7p5---5-----------5-7p5---5-7---------7-7b-7b-7b-7b-7b---|
D|--------------------7---7-5---5-7-------7--------------------------------|
A|---0------------------------7--------------------------------------------|
E|-------------------------------------------------------------------------|

e|-------------------------------------------------------------------------|
B|-------------------------------------------------------------------------|
G|---------------------------------5-----7-----9------14-------------------|
D|-------7----5----4h5p4---------------------------------------------------|
A|---0-0---00---00-------7-5-3-2/3---3/5---5/7---7/12----12\---------------|
E|-----------------------------------------------------------7-------------|

e|-------------------------------------------------------------------------|
B|----------------------------7—-7--10--10--12—-12--15---------------------|
G|------------------7-10-9-7—-9b-9b-12b-12b-14b-14b-17b--------------------|
D|---------7--9-8-9--------------------------------------------------------|
A|---9-8-9-----------------------------------------------------------------|
E|-------------------------------------------------------------------------|

e|-------------------------------10---9------------------------------------|
B|-------10---9------10---9------------------10---9------------------------|
G|---7-7----7----7-7----7----7-7----7----7-7----7--------------------------|
D|-------------------------------------------------------------------------|
A|-------------------------------------------------------------------------|
E|-------------------------------------------------------------------------|

e|-------------------------------------------------------------------------|
B|-------------------------------------------------------------------------|
G|---7-7-9brb-p7-9p7----7--------------------------------------------------|
D|-------------------h9----------------------------------------------------|
A|-------------------------------------------------------------------------|
E|-------------------------------------------------------------------------|

e|-----------10-----9-----8------------------------------------------------|
B|------------------------------5h6-5h6------------------------------------|
G|---4/7-7-7----6-6---5-5---4h7---------4\---------------------------------|
D|-------------------------------------------------------------------------|
A|-------------------------------------------------------------------------|
E|-------------------------------------------------------------------------|


************************************

| h  Hammer-on
| p  Pull-off
| b  Bend
| /  Slide up
| \  Slide down
| br  Bend release
| pb  Pre-bend
| pbr Pre-bend release

************************************
Suggest correction
Give kudos to tab author, rate the tab!
1 2 3 4 5
comments
print report bad tab
guest
You may want to rate the tab now too:
select rating
Wanna post a correction for this tab? Suggest correction