Oops, an error
Loading. Please wait.

Weightless Tab

2,329 views 1 this week
no commentswrite comment
1 2 3 4 5
please rate
add to favorites
launch autoscroll
font size
0
reset
how to read this tab
guitar tuner
Autoscroll
slow
fast
+/-
esc
set tempo
stop
Help us to improve Ultimate-Guitar.com Take our survey!
×
info:wolfgang is a filipino band(originated in the philippines) like rivermaya
slapshock,greyhoundz etc.. if you want some info. email them at
www.wolfgang.com.ph, smephil@mnl.sequel.net. or visit them in geocities.com
pinoy central.com they have an album semenelin US version and their song
"no falter" becomes the soundtrack of a movie final fantasy
"the spirit within" by:alec baldwin & james woods they won a lot of awards here
in our country, the band have four talented persons 
(b. artadi,m.legarda,w.gemora,m.legaspi)

ARTIST:WOLFGANG
SONG:WEIGHTLESS(FROM THE ALBUM SEMENELIN TRACK#8)
BY:B.ARTADI,M.LEGARDA,W.GEMORA,M.LEGASPI
TAB BY:LEANDER V. MACUTAY 

Tuned the guitar 1/2 lower
INTRO:E5-G5-E5-G5-E5-G5-E5-G5-E5-G5

Eb|-----------------------------------|
Bb|-----------------------------------|
Gb|-----------------------------------|
Db|-----5-----5-----5-----5-----5-----|
Ab|-----5-----5-----5-----5-----5-----|
Eb|-0-0-3-0-0-3-0-0-3-0-0-3-0-0-3-----|
    * * * * * * * * * * *   * *

STANZA:E5-G5-E5-G5-A/C#-C
Eb|-----------------------------------|
Bb|-----------------------------------|
Gb|-----------------6-----5-----------|
Db|-----5-----5---6---6-5---5/--------|
Ab|-----5-----5---4-----3---3/--------|
Eb|-0-0-3-0-0-3-0---------------------|
    * *   * *   *

CHORUS:E-G-A-E-E-G-A

Eb|--------------------------------------------|
Bb|--------------------------------------------|
Gb|--------------------------------------------|
Db|---2-2-2-2-2/5------9--2-2-2-2-2/5----------|
Ab|---2-2-2-2-2/5--5-7-7--2-2-2-2-2/5-5--7-----|
Eb|---0-0-0-0-0----3-5----0-0-0-0-0---3--5-----|

this part is before the bridge, I dont how many 2's or tens there just strum
it fast or hear it in your tape or CD's
Eb|--2/10-10/5----|
bridge:A5-d5

Eb|-------------------------------------------|
Bb|-------------------------------------------|
Gb|-------------------------------------------|
Db|-------------------------------------------|
Ab|----------5-6-5-3-5-6H5P6------------------|
Eb|--5-5-5-5-----------------5----------------|


SOLO:GUITAR-1
Eb|----------------------------------------------------------------------|
Bb|----------------------------------------------------------------------|
Gb|----9-9H11-8-9-8------------------------------------------------------|
Db|-----------------10-9-9-9-9--9-9H11H13-9-9H11H13-9-9H11H13-9-9H11H13--|
Ab|----------------------------------------------------------------------|
Eb|----------------------------------------------------------------------|

Eb|-------------------------------------|
Bb|-------------------------------------|
Gb|-------------------------------------|
Db|--9-9H12P11P9--9-9H11----------------|
Ab|----------------------12-10-10-------|
Eb--------------------------------12----|

                       nh 
Eb|----------------------------------------------|
Bb|----------------------------------------------|
Gb|----9-8-10-10-10-9-9^11--9-9P7-9--------------|
Db|--7------------------------------9-9P7-7------|
Ab|--------------------------------------9/------|
Eb|----------------------------------------------|

Eb|----------------------------------------------|
Bb|----------------------------------------------|
Gb|------------6----7----6--6----6---------------|
Ab|------9--7/9--7/9--7/9-9---9----9-9/----------|
Db|--5/7-----------------------------------------|
Ab|----------------------------------------------|
Eb|----------------------------------------------|

Eb|---------------------------16~~~--------------|
Bb|------------12-12-14-12-14--------------------|
Gb|-----15--/9-----------------------------------|
Db|--/12-----------------------------------------|
Ab|----------------------------------------------|
Eb|----------------------------------------------|

Eb|--14-19P17P15-14-15-14-19P17P15-14-15--14-14H15-19----14H15-19----17H19-21--|
Bb|---------------------------------------------------17----------19-----------|
Gb|----------------------------------------------------------------------------|
Db|----------------------------------------------------------------------------|
Ab|----------------------------------------------------------------------------|
Eb|----------------------------------------------------------------------------|

Eb|---------------------------------------------|
Bb|--14-14H15-17P15-14-------14-14-15H17P15-14--|
Gb|-------------------15^16---------------------|
Db|---------------------------------------------|
Ab|---------------------------------------------|
Eb|---------------------------------------------|


Eb|---------------------------------------------------|
Bb|--14-14-15-17H19P17P15P14--------------------------|
Gb|--------------------------15^16--13/15---15~~~~----|
Db|---------------------------------------------------|
Ab|---------------------------------------------------|
Eb|---------------------------------------------------|


GUITAR-2
Eb|-----------------------------17-17-17/18-18-18/20-20-20-22~~~|
Bb|--15-15-15/17-17-17/18-18-18-17-17-17/18-18-18/20-20-20-22~~~|
Gb|--16-16-16/18-18-18/19-19-19---------------------------------|
Db|-------------------------------------------------------------|
Ab|-------------------------------------------------------------|
Eb|-------------------------------------------------------------|


AND I SEE THE OPENING BEFORE ME:C-D-G-Am
Gb|--------5--------7-------------------|
Db|--5---5----7---7--------5---------7--|
Ab|--3-3------5-5----5---5----7----7----|
Eb|------------------3-3------5--5------|
I DONT KNOW HOW ACCURATE IS THIS, IF YOU HAVE SOME 
MORE ACCURATE THAN THIS PLEASE SEND IT TO ME. 

AFTER "ON MY OWN"
Eb|--------------------------------------|
Bb|--------------------------------------|
Gb|--------------------------------------|
Db|-----2-----2-----2-----2--5-5---------| 
Ab|-----2-----2-----2-----2--5-5---------|
Eb|--0-----0-----0-----0-----3-3---------|
     *     *     *     *    F

Eb|------------------------------------|
Bb|------------------------------------|
Gb|------------------------------------|
Db|-----2-----2-----2-----2--5--5--2---|
Ab|-----2-----2-----2-----2--5--5--2---|
Eb|--0-----0-----0-----0-----3--3--0---|
     *     *     *     *

"I DONT KNOW IF THE SOLO IS CORRECT 
BUT I ASSURE TO YOU THAT THE RIFFS ARE 100% ACCURATE

LYRICS:
WEIGHTLESS

LET ICARUS PLUMMET 
AS SUN MELTS WAX
I'M GONNA TOUCH THE SKY
MUCH LONGER THAN THAT

CHORUS:
ON THE WINGS OF EROS
I'LL STRETCH THEM WIDE
UPON THE WINGS OF FORTUNE 
IM READY TO GLIDE

AND I WILL HOLD THE CLOUDS
YES I'LL BREATHE THEM IN
I'm GONNA BE ABLE
TO REACH THE HEAVENS
(REPEAT CHORUS)

BRIDGE:
SO NOW THAT YOUR FLOATING UPON MY CREST
AND LEARNING TO BE COMPLETELY WEIGHTLESS
YOU'LL SEE THOUGH YOUR BODY SLEEPS 
YOUR SOUL WILL NEVER REST

AND I SEE THE OPENING BEFORE ME
THE WOMB TO BE NO LONGER MY HOME
TOWARD THE UNKNOWN CONTRACTIONS PROPEL ME
I AM RELEASED TO BE ON MY OWN

I AM KICKIN INSIDE FEEL ME
(REPEAT CHORUS)

WAIT FOR NO FALTER(SOUNTRACK OF FINAL FANTASY THE MOVIE), LOVE & DESPAIR
SEMENELIN,BOUGHT & SOLD END..
Suggest correction
Give kudos to tab author, rate the tab!
1 2 3 4 5
comments
print report bad tab
guest
You may want to rate the tab now too:
select rating
Wanna post a correction for this tab? Suggest correction