Oops, an error
Loading. Please wait.

Rondo Alla Turca Tab

version 1
version 1

Whole song

Interactive

68,621 views 102 this week
1 commentread comment
1 2 3 4 5
accurate
x 6
add to favorites
launch autoscroll
font size
0
reset
how to read this tab
guitar tuner
Autoscroll
slow
fast
+/-
esc
set tempo
stop
Help us to improve Ultimate-Guitar.com Take our survey!
×
Difficulty
Tuning
intermediate
D A D G B E
RONDO ALLA TURCA-WOLFGANG AMADAEUS MOZART

I transcribed this to an electric distorted guitar. I also a guitar duet lead which 
harmonies guitar 1's lead. Order of which is played is located at the bottom of the page. 
Have fun :).


[RIFF A]

GUITAR 1
E----------------------------------------------19-17-16-17-18-17-16-17-20~-|
B-12-10-9-10/13~--15-13-12-13/17~--18-17-16-17-----------------------------|
G--------------------------------------------------------------------------|
D--------------------------------------------------------------------------|
A--------------------------------------------------------------------------|
D--------------------------------------------------------------------------|

GUITAR 2
E-----------------------------------------16-14-13-14-16-14-13-14-17~------|
B-9-7-6-7/9~--12-10-9-10/13~--15-14-13-14----------------------------------|
G--------------------------------------------------------------------------|
D--------------------------------------------------------------------------|
A--------------------------------------------------------------------------|
D--------------------------------------------------------------------------|

GUITAR 1
E-17-20-19-17----17-19-17----17-19-17--------------------------------------|
B-------------20----------20----------20-19-17~----------------------------|
G--------------------------------------------------------------------------|
D--------------------------------------------------------------------------|
A--------------------------------------------------------------------------|
D--------------------------------------------------------------------------|

GUITAR 2
E-14-17-16-14----14-16-14----14-16-14--------------------------------------|
B-------------17----------17----------17-16-14~----------------------------|
G--------------------------------------------------------------------------|
D--------------------------------------------------------------------------|
A--------------------------------------------------------------------------|
D--------------------------------------------------------------------------|


[RIFF B]

GUITAR 1
E-------15-15-17-15-----------------15-15-17-15----------------------------|
B-17-18-------------18-17-15~-17-18-------------18-17~---------------------|
G--------------------------------------------------------------------------|
D--------------------------------------------------------------------------|
A--------------------------------------------------------------------------|
D--------------------------------------------------------------------------|

GUITAR 2
E-------12-12-13-12-----------------12-12-13-12----------------------------|
B-13-15-------------15-13-12~-13-15-------------15-13-12~------------------|
G--------------------------------------------------------------------------|
D--------------------------------------------------------------------------|
A--------------------------------------------------------------------------|
D--------------------------------------------------------------------------|

GUITAR 1
E-------12-12-13-12-----------------12-12-13-12----------------------------|
B-13-15-------------15-13-12~-13-15-------------15-13-12~------------------|
G--------------------------------------------------------------------------|
D--------------------------------------------------------------------------|
A--------------------------------------------------------------------------|
D--------------------------------------------------------------------------|

GUITAR 2
E-------8-8-10-8----------------8-8-10-8-----------------------------------|
B-10-12----------12-10-9~-10-12----------12-10-9~--------------------------|
G--------------------------------------------------------------------------|
D--------------------------------------------------------------------------|
A--------------------------------------------------------------------------|
D--------------------------------------------------------------------------|


[RIFF C]

GUITAR 1
E--------------------------------------------------------------------------|
B----12-14----12-14-12h14p12----------------12----------12-14----12-14-----|
G-14-------14----------------14-13-11-13-14----13----14-------14-----------|
D-------------------------------------------------14-----------------------|
A--------------------------------------------------------------------------|
D--------------------------------------------------------------------------|

E--------------------------------------------------------------------------|
B-12h14p12----------12-----------------------------------------------------|
G----------14-13-11----13----14~-------------------------------------------|
D-------------------------14-----------------------------------------------|
A--------------------------------------------------------------------------|
D--------------------------------------------------------------------------|

GUITAR 2
E--------------------------------------------------------------------------|
B----9-11----9-11-9h11p9---------------9----------9-11----9-11-9h11p9------|
G-11------11-------------11-10-8-10-11---10----11------11------------------|
D-------------------------------------------11-----------------------------|
A--------------------------------------------------------------------------|
D--------------------------------------------------------------------------|

E--------------------------------------------------------------------------|
B---------9----------------------------------------------------------------|
G-11-10-9---10----11~------------------------------------------------------|
D--------------11----------------------------------------------------------|
A--------------------------------------------------------------------------|
D--------------------------------------------------------------------------|


[RIFF D]

GUITAR 1
E-17~----------------------------------------------------------------------|
B--------------------------------------------------------------------------|
G--------------------------------------------------------------------------|
D--------------------------------------------------------------------------|
A--------------------------------------------------------------------------|
D--------------------------------------------------------------------------|

GUITAR 2
E-13~----------------------------------------------------------------------|
B--------------------------------------------------------------------------|
G--------------------------------------------------------------------------|
D--------------------------------------------------------------------------|
A--------------------------------------------------------------------------|
D--------------------------------------------------------------------------|


[ORDER]

RIFF A x2

RIFF B x1

RIFF A x1

RIFF C x2

RIFF D x69


************************************

| h  Hammer-on
| p  Pull-off
| /  Slide up
| ~  Vibrato

************************************
Suggest correction
What's this?
You can suggest a correction to this tab. Community and Mods will review your correction and vote to approve or reject it.
comments
print report bad tab
1 comment total.
+1 reply
Blue_Strat_06 54 wrote on August 22 2011, 10:14 pm

frickin awesome

guest
You may want to rate the tab now too:
select rating
Please do not post tabs as comments. Select "correction" instead!