Oops, an error
Loading. Please wait.

Turkish March Tab

version 1
version 1
108,818 views 99 this week
4 commentsread comments
1 2 3 4 5
accurate
x 13
add to favorites
launch autoscroll
font size
0
reset
how to read this tab
guitar tuner
Autoscroll
slow
fast
+/-
esc
set tempo
stop
Help us to improve Ultimate-Guitar.com Take our survey!
×
[part one]
e|------------------------------12----------------19-17-16-17-19-17-15-17-20|
B|12----------13----15-13-12-13-------18-17-16-17---------------------------|
G|---14-13-14---------------------------------------------------------------|
D|--------------------------------------------------------------------------|
A|--------------------------------------------------------------------------|
E|--------------------------------------------------------------------------|

 [part two]
e|17-20-17/19--17-15-17---17/19--17-15-17---17/19--17-15-13-12--------------|
B|-------------19-17-19----------19-17-19----------19-17-15-----------------|
G|--------------------------------------------------------------------------|
D|--------------------------------------------------------------------------|
A|--------------------------------------------------------------------------|
E|--------------------------------------------------------------------------|

 [part three]
e|------15-15-17-15----------------------15-15-17-15-------------------------|
B|17-18-17-17-------18-17-15-------17-18-17-17-------18-17-15----------------|
G|17-19-------------------16-------17-19-------------------16----------------|
D|---------------------------------------------------------------------------|
A|---------------------------------------------------------------------------|
E|---------------------------------------------------------------------------|

e|--------12-12-13-12----------------------12-12-13-12------------------------|
B|--13-15-13-13-------15-13-12-------13-15-13-13-------15-13-12---------------|
G|--14-16-------------------13-------14-16-------------------13---------------|
D|----------------------------------------------------------------------------|
A|----------------------------------------------------------------------------|
E|----------------------------------------------------------------------------|

 [part four]
e|17--19--20--19--17--16--17------------------------------------------------|
B|----------------------------17--18--15--13---12h13p12-12h13p12------------|
G|---------------------------------------------------------------14---------|
D|--------------------------------------------------------------------------|
A|--------------------------------------------------------------------------|
E|--------------------------------------------------------------------------|

 [part five]
e|--------9--------------9---------------------------------------------------|
B|10--12---------10--12--------12--10--9-------9---10--12--9-----------------|
G|-----------------------------------------11------------------9-------------|
D|----9---11---------9---11----9-----------------------9---------------------|
A|12-------------12----------------12--11--9---11--12------11----------------|
E|-------------------------------------------------------------12------------|

e|----------9--------------9--------------------------------------------------|
B|--10--12---------10--12--------12--10--9-------12--9-------10---------------|
G|-------------------------------------------11----------9--------------------|
D|------9---11---------9---11----9---------------9----------------------------|
A|--12-------------12----------------12--11--9-------11------12---------------|
E|-------------------------------------------------------12-------------------|


************************************

| h  Hammer-on
| p  Pull-off
| /  Slide up

************************************
Suggest correction
comments
print report bad tab
4 comments total. Showing first comments.
0 reply
bendystraw 30 wrote on December 13 2006, 05:00 pm

i can play it but i wont give lessons. nice tab.

0 reply
acousticky14 20 wrote on March 20 2007, 01:19 am

i tried to look for this tab coz i saw the amadeus rock on youtube i was hoping i could play it like him but this is way different.. anyway it's a great tab

+1 reply
Omnicae 10 wrote on February 28 2013, 11:10 am

This should be the outro of Part 1:
19--17-15-17--19--17-15-17--19-17-15-13-12
20--19-17-19--20--19-17-19--20-19-17-15-13
_____

Rest seems fine and playable. I wouldn't pull and hammer those parts by the way.

guest
You may want to rate the tab now too:
select rating
Please do not post tabs as comments. Select "correction" instead!