Oops, an error
Loading. Please wait.

Turkish March tab

version 5
version 5
45,408 views 30 this week
2 commentsread comments
1 2 3 4 5
x 12
add to favorites
×
Save as Personal and add changes to this tab that will be seen only by you. Learn more ›
×
You can save this tab as Personal to edit and correct it or add notes. All changes will be seen only by you. Learn more »
launch autoscroll
font size
0
reset
how to read this tab
guitar tuner
backing track
0:00
0:00
edit
Autoscroll
slow
fast
+/-
esc
set tempo
stop
Author
Difficulty
Song: Turkish March
Artist: Wolfgang Amadeus Mozart
- Transcribed by Colton Wood (AwokenDEMON)

Contact me at "ColtonWoed@aol.com"

Rondo Alla Turca, or Turkish March, is a peice well known throughout the 
west. Originally played on the piano, I have transposed the whole song into 
a two part guitar tab, one guitar for the treble Clef and one for the bass clef. 

UPDATES:
- Corrected part three
- Added Length Markers
- Extended Legend and made it clearer
- Added Ghost notes
- Removed part indications and added repeats
- Added bars
- Added Time Signatures
- Combined parts 1 and 2 in a grand staff
****************************************************************************

Gtr I (E A D G B E) - 'Guitar 1'
Gtr II (E A D G B E) - 'Guitar 2'

  Q=136
 1/4       2/4
  Gtr I
  S S S S   E E  S S S S    E E  S  S  S  S
|-7-5-4-5-|-8---10-8-7-8-|-12---13-12-11-12-|
|---------|--------------|------------------|
|---------|--------------|------------------|
|---------|--------------|------------------|
|---------|--------------|------------------|
|---------|--------------|------------------|
|
| Gtr II
| W         E E  E   E      E E  E     E
|---------|---0--0---0---|----0--0-----0----|
|---------|---1--1---1---|----1--1-----1----|
|---------|-2------------|--2---------------|
|---------|--------------|------------------|
|---------|--------------|------------------|
|---------|--------------|------------------|


   S  S  S  S  S  S  S  S    Q    S S  S S
|-19-17-16-17-19-17-16-17-|-20--------20----|
|-------------------------|------22---------|
|-------------------------|-----------------|
|-------------------------|-----------------|
|-------------------------|-----------------|
|-------------------------|-----------------|
|
|  E     E     E     E       E E  E    E
|--------0-----------0----|----0--0----0----|
|--------1-----------1----|----1--1----1----|
|--2-----------2----------|--2--------------|
|-------------------------|-----------------|
|-------------------------|-----------------|
|-------------------------|-----------------|


   S S  S S  S S  S S    S S  S S  S S  S S
|-19---17---15---17---|-19---17---15---17---|
|-20---19---17---19---|-20---19---17---19---|
|---------------------|---------------------|
|---------------------|---------------------|
|---------------------|---------------------|
|---------------------|---------------------|
|
|  E    E    E    E      E    E    E    E
|---------------------|---------------------|
|-------5----5----5---|-------5----5----5---|
|-------4----4----4---|-------4----4----4---|
|--2------------------|--2------------------|
|---------------------|---------------------|
|---------------------|---------------------|


                       1/4                2/4
   S S  S S  S S  S S    Q     S  S S  S   E E  S S S S
|-19---17---15---14---|-12--|------------|-8---10-8-7-8-|
|-20---19---17---16---|-----|-12-10-9-10-|--------------|
|---------------------|-----|------------|--------------|
|---------------------|-----|------------|--------------|
|---------------------|-----|------------|--------------|
|---------------------|-----|------------|--------------|
|
|  E    E    E    E      Q     W           E E  E   E
|---------------------|-----|------------|---0--0---0---|
|-------5-------------|-----|------------|---1--1---1---|
|-------4---------4---|-----|------------|-2------------|
|--2------------------|--2--|------------|--------------|
|------------2--------|-----|------------|--------------|
|---------------------|-----|------------|--------------|


   E E  S  S  S  S    S  S  S  S  S  S  S  S
|-12---13-12-11-12-|-19-17-16-17-19-17-16-17-|
|------------------|-------------------------|
|------------------|-------------------------|
|------------------|-------------------------|
|------------------|-------------------------|
|------------------|-------------------------|
|
|  E E  E     E       E     E     E     E
|----0--0-----0----|--------0-----------0----|
|----1--1-----1----|--------1-----------1----|
|--2---------------|--2-----------2----------|
|------------------|-------------------------|
|------------------|-------------------------|
|------------------|-------------------------|


   Q    S S  S S    S S  S S  S S  S S    S S  S S  S S  S S
|-20--------20---|-19---17---15---17---|-19---17---15---17----|
|------22--------|-20---19---17---19---|-20---19---17---19----|
|----------------|---------------------|----------------------|
|----------------|---------------------|----------------------|
|----------------|---------------------|----------------------|
|----------------|---------------------|----------------------|
|
|  E E  E    E      E    E    E    E      E    E    E    E
|----0--0----0---|---------------------|----------------------|
|----1--1----1---|-------5----5----5---|-------5----5----5----|
|--2-------------|-------4----4----4---|-------4----4----4----|
|----------------|--2------------------|--2-------------------|
|----------------|---------------------|----------------------|
|----------------|---------------------|----------------------|


                       1/4               2/4
   S S  S S  S S  S S    Q     S S  S S    S S  S S  S  S  S  S
|-19---17---15---14---|-12--|-12---13---|-15---15---17-15-13-12-|
|-20---19---17---16---|-----|-13---15---|-17---17---------------|
|---------------------|-----|-----------|-----------------------|
|---------------------|-----|-----------|-----------------------|
|---------------------|-----|-----------|-----------------------|
|---------------------|-----|-----------|-----------------------|
|
|  E    E    E    E      Q     W           E    E    E     E
|---------------------|-----|-----------|-----------------------|
|-------5-------------|-----|-----------|-------1----------5----|
|-------4---------4---|-----|-----------|-----------------------|
|--2------------------|--2--|-----------|------------2----------|
|------------2--------|-----|-----------|--3--------------------|
|---------------------|-----|-----------|-----------------------|


   Q    S S  S S    S S  S S  S  S  S  S
|-10---12---13---|-15---15---17-15-13-12-|
|-12---13---15---|-17---17---------------|
|----------------|-----------------------|
|----------------|-----------------------|
|----------------|-----------------------|
|----------------|-----------------------|
|
|  E E  Q           E    E    E     E
|----3-----------|-----------------------|
|----------------|-------1----------5----|
|----------------|-----------------------|
|--5-------------|------------2----------|
|----------------|--3--------------------|
|----------------|-----------------------|


   Q   S S  S S    S S  S S  S  S  S S    Q     S S  S S
|-10---8---10---|-12---12---13-12-10-8-|--7-----8---10---|
|-12--10---12---|-13---13--------------|--9----10---12---|
|---------------|----------------------|-----------------|
|---------------|----------------------|-----------------|
|---------------|----------------------|-----------------|
|---------------|----------------------|-----------------|
|
|  Q   Q           E    E    E     E      E  E  Q
|---------------|----------------------|-----------------|
|---------------|----------------------|-----------------|
|---------------|----------------------|-----------------|
|--5------------|-------7---------10---|----14-----------|
|---------------|----------------------|-----------------|
|---------------|--5---------8---------|-12--------------|


                        1/4
   S S  S S  S  S  S S    Q    S S S S
|-12---12---13-12-10-8-|--7--|-7-5-4-5--|
|-13---13--------------|--9--|----------|
|----------------------|-----|----------|
|----------------------|-----|----------|
|----------------------|-----|----------|
|----------------------|-----|----------|
|
|  E    E    E     E      Q    W
|----------------------|-----|----------|
|----------------------|-----|----------|
|----------------------|-----|----------|
|-----------------10---|-----|----------|
|--0---12--------------|-----|----------|
|------------8---------|-12--|----------|


 2/4
   E  E  S S  S S    E  E  S  S  S  S    S  S  S  S  S  S  S  S
|--8----10-8--7-8-|-12----13-12-11-12-|-19-17-16-17-19-17-16-17-|
|-----------------|-------------------|-------------------------|
|-----------------|-------------------|-------------------------|
|-----------------|-------------------|-------------------------|
|-----------------|-------------------|-------------------------|
|-----------------|-------------------|-------------------------|
|
|  E  E  E    E      E  E  E     E       E     E     E     E
|-----------------|-------------------|-------------------------|
|-----------------|-------------------|-------------------------|
|-----------------|-------------------|-------------------------|
|----14-14---14---|----14-14----14----|-------14----------14----|
|-12-15-15---15---|-12-15-15----15----|-12----15----12----15----|
|-----------------|-------------------|-------------------------|


   Q     S S  S S    S S  S S  S S  S S
|-20---------20---|-20---19---17---16---|
|-------22--------|---------------------|
|-----------------|---------------------|
|-----------------|---------------------|
|-----------------|---------------------|
|-----------------|---------------------|
|
|  E  E  E    E      E    E    E    E
|-----------------|---------------------|
|-----------------|---------------------|
|-----------------|---------------------|
|----13-13---13---|------14---------9---|
|----12-12---12---|------12---------8---|
|-13--------------|-12--------10--------|


                                          1/4
   S S  S S  S S  S S    Q    S  S  S  S    E E
|-17------------------|------------------|------|
|------17---18--------|------------------|------|
|----------------19---|-17---------------|------|
|---------------------|------19-21-21-21-|-21---|
|---------------------|---------24-24-24-|-24---|
|---------------------|------------------|------|
|
|  E    E    E    E      E E  E     E       Q
|---------------------|------------------|------|
|---------------------|------------------|------|
|-----------------4---|--2-2--1-----1----|--2---|
|-------7---------3---|--2-2--2-----2----|------|
|-------7----5--------|------------------|------|
|--8------------------|------------------|------|


             2/4
   S S  S S    S S  S S  S  S  S  S    Q    S S  S S
|-----------|-----------------------|----------------|
|-----------|-20---20---22-20-18-17-|-15---17---18---|
|-21---22---|-21---21---------------|-16---17---19---|
|-22---24---|-----------------------|----------------|
|-----------|-----------------------|----------------|
|-----------|-----------------------|----------------|
|
|  W           E    E    E     E       E E  Q
|-----------|-----------------------|----3-----------|
|-----------|-------1----------5----|----------------|
|-----------|-----------------------|----------------|
|-----------|------------2----------|--5-------------|
|-----------|--3--------------------|----------------|
|-----------|-----------------------|----------------|


   S S  S S  S  S  S  S    Q   S S  S S    S S  S S  S  S  S  S
|-----------------------|---------------|-----------------------|
|-20---20---22-20-18-17-|-15--13---15---|-17---17---18-17-15-13-|
|-21---21---------------|-16--14---16---|-17---17---------------|
|-----------------------|---------------|-----------------------|
|-----------------------|---------------|-----------------------|
|-----------------------|---------------|-----------------------|
|
|  E    E    E     E       Q   Q           E    E    E     E
|-----------------------|---------------|-----------------------|
|-------1----------5----|---------------|-----------------------|
|-----------------------|---------------|-----------------------|
|------------2----------|--5------------|-------7---------10----|
|--3--------------------|---------------|-----------------------|
|-----------------------|---------------|--5---------8----------|


   Q     S S  S S    S S  S S  S  S  S  S
|-----------------|------------------------|
|-12----13---15---|-17---17---18-17-15-13--|
|-13----14---16---|-17---17----------------|
|-----------------|------------------------|
|-----------------|------------------------|
|-----------------|------------------------|
|
|  E  E  Q           E    E    E     E
|-----------------|------------------------|
|-----------------|------------------------|
|-----------------|------------------------|
|----14-----------|-----------------10-----|
|-----------------|--0---12----------------|
|-12--------------|------------8-----------|


 1/4                2/4
   Q     S  S S  S    E  E  S S  S S    E  E  S  S  S  S
|-----|------------|--8----10-8--7-8-|-12----13-12-11-12-|
|-12--|-12-10-9-10-|-----------------|-------------------|
|-13--|------------|-----------------|-------------------|
|-----|------------|-----------------|-------------------|
|-----|------------|-----------------|-------------------|
|-----|------------|-----------------|-------------------|
|
|  Q     W            E  E  E    E      E  E  E     E
|-----|------------|-----------------|-------------------|
|-----|------------|-----------------|-------------------|
|-----|------------|-----------------|-------------------|
|-----|------------|----14-14---14---|----14-14----14----|
|-----|------------|-12-15-15---15---|-12-15-15----15----|
|-12--|------------|-----------------|-------------------|


   S  S  S  S  S  S  S  S    Q     S S  S S
|-19-17-16-17-19-17-16-17-|-20---------20---|
|-------------------------|-------22--------|
|-------------------------|-----------------|
|-------------------------|-----------------|
|-------------------------|-----------------|
|-------------------------|-----------------|
|
|  E     E     E     E       E  E  E    E
|-------------------------|-----------------|
|-------------------------|-----------------|
|-------------------------|-----------------|
|-------14----------14----|----13-13---13---|
|-12----15----12----15----|----12-12---12---|
|-------------------------|-13--------------|


   S S  S S  S S  S S    S S  S S  S S  S S    Q    T  T  T  T
|-20---19---17---16---|-17------------------|------------------|
|---------------------|------17---18--------|------------------|
|---------------------|----------------19---|-17---------------|
|---------------------|---------------------|------19-21-19-21-|
|---------------------|---------------------|------------------|
|---------------------|---------------------|------------------|
|
|  E    E    E    E      E    E    E    E      E E  E     E
|---------------------|---------------------|------------------|
|---------------------|---------------------|------------------|
|---------------------|-----------------4---|--2-2--1-----1----|
|------14---------9---|-------7---------3---|--2-2--2-----2----|
|------12---------8---|-------7----5--------|------------------|
|-12--------10--------|--8------------------|------------------|


 1/4               2/4
   E E    E  E       Q    E  E       E  E  E  E
|------|----------|-21------------|-21-19-17-16----|
|------|-22-24----|------22-24----|----------------|
|------|----------|-18------------|-18-16-14-13----|
|-21---|-19-21----|------19-21----|----------------|
|-24---|----------|---------------|----------------|
|------|----------|---------------|----------------|
|
|  Q      E  S  S    E E  E  S  S    E  E  E  S S
|------|----------|---------------|----------------|
|------|----------|---------------|----------------|
|--2---|----------|---------------|----------------|
|------|-----4--6-|--7-7--7-------|----------------|
|------|-------10-|--7-7--7--9-11-|-12-12-12--2-4--|
|------|----------|------------15-|-12-12-12----8--|


   E  E  E  E       E  E  E  E       Q     E  E
|-14-16-17-19----|----------------|-21-------------|
|----------------|-21----22-24----|-------22-24----|
|-11-13-14-16----|----21----------|-18-------------|
|----------------|-18----19-21----|-------19-21----|
|----------------|----19----------|----------------|
|----------------|----------------|----------------|
|
|  E  E  E  S  S    E  E  E  S  S    E  E  E  S  S
|----------------|----------------|----------------|
|----------------|----------------|----------------|
|----------------|----------------|----------------|
|----------------|----------------|----------------|
|--5--5--5--4--6-|--7--7--7--9-11-|-12-12-12----11-|
|--5--5--5----10-|--7--7--7----15-|-12-12-12-14-15-|


                                 1/4              2/4
   E  E  E  E      E  E    E  E    Q     E  E       Q    E  E
|-21-19-17-16---|-14-19---------|-----|----------|-21--------------|
|---------------|---------21----|-22--|-22-24----|------22-24------|
|-18-16-14-13---|-11-16------21-|-----|----------|-18--------------|
|---------------|---------18----|-19--|-19-21----|------19-21------|
|---------------|------------19-|-----|----------|-----------------|
|---------------|---------------|-----|----------|-----------------|
|
|  E  E  E  S S    E  S S  E  E    Q     E  S  S    E E  E  S  S
|---------------|---------------|-----|----------|-----------------|
|---------------|---------------|-----|----------|-----------------|
|---------------|---------------|-----|----------|-----------------|
|---------------|---------------|-----|-----4--6-|--7-7--7---------|
|-12-12-12--2-4-|--5--5-6--7--7-|-----|-------10-|--7-7--7--9-11---|
|-12-12-12----8-|--5--5----7--7-|--5--|----------|------------15---|


   E  E  E  E      E  E  E  E       E  E  E  E       Q     E  E
|-21-19-17-16---|-14-16-17-19----|----------------|-21-------------|
|---------------|----------------|-21----22-24----|-------22-24----|
|-18-16-14-13---|-11-13-14-16----|----21----------|-18-------------|
|---------------|----------------|-18----19-21----|-------19-21----|
|---------------|----------------|----19----------|----------------|
|---------------|----------------|----------------|----------------|
|
|  E  E  E  S S    E  E  E  S  S    E  E  E  S  S    E  E  E  S  S
|---------------|----------------|----------------|----------------|
|---------------|----------------|----------------|----------------|
|---------------|----------------|----------------|----------------|
|---------------|----------------|----------------|----------------|
|-12-12-12--2-4-|--5--5--5--4--6-|--7--7--7--9-11-|-12-12-12----11-|
|-12-12-12----8-|--5--5--5----10-|--7--7--7----15-|-12-12-12-14-15-|


                                 1/4
   E  E  E  E      E  E    E  E    Q     S  S  S  S
|-21-19-17-16---|-14-19---------|-----|-21-22-21-19-|
|---------------|---------21----|-22--|-------------|
|-18-16-14-13---|-11-16------21-|-----|-------------|
|---------------|---------18----|-19--|-------------|
|---------------|------------19-|-----|-------------|
|---------------|---------------|-----|-------------|
|
|  E  E  E  S S    E  S S  E  E    Q     W
|---------------|---------------|-----|-------------|
|---------------|---------------|-----|-------------|
|---------------|---------------|-----|-------------|
|---------------|---------------|-----|-------------|
|-12-12-12--2-4-|--5--5-6--7--7-|-----|-------------|
|-12-12-12----8-|--5--5----7--7-|--5--|-------------|


 2/4
   S  S  S  S  S  S  S  S    S  S  S  S  S  S  S  S
|-17-19-17-16-14-17-16-14-|-13-14-16----------------|
|-------------------------|----------17----16-17----|
|-------------------------|-------------18-------18-|
|-------------------------|-------------------------|
|-------------------------|-------------------------|
|-------------------------|-------------------------|
|
|  E     E     E     E       E     E     E     E
|-------------------------|-------------------------|
|--------2-----2-----2----|--------2-----2-----2----|
|--------2-----2-----2----|--1-----4-----4-----4----|
|--4----------------------|-------------------------|
|-------------------------|-------------------------|
|-------------------------|-------------------------|


   S  S  S  S  S  S  S  S    S  S  S  S  S  S  S  S
|-------------------------|-21-19-21-19-21-22-21-19--|
|-19-17-19-21-22-21-22-24-|--------------------------|
|-------------------------|--------------------------|
|-------------------------|--------------------------|
|-------------------------|--------------------------|
|-------------------------|--------------------------|
|
|  E     E     E     E       E     E     E     E
|-------------------------|--------------------------|
|--------2-----2-----2----|--------2-----2-----2-----|
|--------2-----2-----2----|--------1-----1-----1-----|
|--4----------------------|--3-----------------------|
|-------------------------|--------------------------|
|-------------------------|--------------------------|


   S  S  S  S  S  S  S  S    S  S  S  S  S  S  S  S
|-17-19-17-16-14-17-16-14-|-12-14-16----------------|
|-------------------------|----------17----16-17----|
|-------------------------|-------------18-------18-|
|-------------------------|-------------------------|
|-------------------------|-------------------------|
|-------------------------|-------------------------|
|
|  E     E     E     E       E     E     E     E
|-------------------------|--------0-----0-----0----|
|--------2-----2-----2----|--------2-----2-----2----|
|--------2-----2-----2----|--1----------------------|
|--4----------------------|-------------------------|
|-------------------------|-------------------------|
|-------------------------|-------------------------|


                           1/4
   S  S  S  S  S  S  S  S    Q     S  S  S  S
|-------------------------|-----|-21-22-21-19-|
|-16-17-19----------------|-----|-------------|
|----------20-------20----|-----|-------------|
|-------------22-23----22-|-23--|-------------|
|-------------------------|-----|-------------|
|-------------------------|-----|-------------|
|
|  E     E     E     E       Q     W
|--------2-----2-----2----|--0--|-------------|
|--------4-----4-----4----|--2--|-------------|
|--1----------------------|-----|-------------|
|-------------------------|-----|-------------|
|-------------------------|-----|-------------|
|-------------------------|-----|-------------|


 2/4
   S  S  S  S  S  S  S  S    S  S  S  S  S  S  S  S
|-17-19-17-16-14-17-16-14-|-13-14-16----------------|
|-------------------------|----------17----16-17----|
|-------------------------|-------------18-------18-|
|-------------------------|-------------------------|
|-------------------------|-------------------------|
|-------------------------|-------------------------|
|
|  E     E     E     E       E     E     E     E
|-------------------------|-------------------------|
|--------2-----2-----2----|--------2-----2-----2----|
|--------2-----2-----2----|--1-----4-----4-----4----|
|--4----------------------|-------------------------|
|-------------------------|-------------------------|
|-------------------------|-------------------------|


   S  S  S  S  S  S  S  S    S  S  S  S  S  S  S  S
|-------------------------|-21-19-21-19-21-22-21-19--|
|-19-17-19-21-22-21-22-24-|--------------------------|
|-------------------------|--------------------------|
|-------------------------|--------------------------|
|-------------------------|--------------------------|
|-------------------------|--------------------------|
|
|  E     E     E     E       E     E     E     E
|-------------------------|--------------------------|
|--------2-----2-----2----|--------2-----2-----2-----|
|--------2-----2-----2----|--------1-----1-----1-----|
|--4----------------------|--3-----------------------|
|-------------------------|--------------------------|
|-------------------------|--------------------------|


   S  S  S  S  S  S  S  S    S  S  S  S  S  S  S  S
|-17-19-17-16-14-17-16-14-|-12-14-16----------------|
|-------------------------|----------17----16-17----|
|-------------------------|-------------18-------18-|
|-------------------------|-------------------------|
|-------------------------|-------------------------|
|-------------------------|-------------------------|
|
|  E     E     E     E       E     E     E     E
|-------------------------|--------0-----0-----0----|
|--------2-----2-----2----|--------2-----2-----2----|
|--------2-----2-----2----|--1----------------------|
|--4----------------------|-------------------------|
|-------------------------|-------------------------|
|-------------------------|-------------------------|


                           1/4
   S  S  S  S  S  S  S  S    Q     S  S  S  S
|-------------------------|-----|-------------|
|-16-17-19----------------|-----|-------------|
|----------20-------20----|-----|-21-19-18-16-|
|-------------22-23----22-|-23--|-------------|
|-------------------------|-----|-------------|
|-------------------------|-----|-------------|
|
|  E     E     E     E       Q     W
|--------2-----2-----2----|--0--|-------------|
|--------4-----4-----4----|--2--|-------------|
|--1----------------------|-----|-------------|
|-------------------------|-----|-------------|
|-------------------------|-----|-------------|
|-------------------------|-----|-------------|


 2/4
   S  S  S  S  S  S  S  S    S  S  S  S  S  S  S  S
|-------------------------|-------------------------|
|----12-14-15-17-19-21-22-|-22-21-19-17-17-15-14-12-|
|-14----------------------|-------------------------|
|-------------------------|-------------------------|
|-------------------------|-------------------------|
|-------------------------|-------------------------|
|
|  E     E     E     E       E     E     E     E
|--------0-----0-----0----|-------------------------|
|--------2-----2-----2----|--------2-----2-----2----|
|--2----------------------|--------2-----2-----2----|
|-------------------------|--4----------------------|
|-------------------------|-------------------------|
|-------------------------|-------------------------|


   S  S  S  S  S  S  S  S    E  E  S  S  S  S
|-------------------------|--------------------|
|-10-12-14-15-17-19-21-22-|-23-24--------------|
|-------------------------|-------21-19-18-16--|
|-------------------------|--------------------|
|-------------------------|--------------------|
|-------------------------|--------------------|
|
|  E     E     E     E       E  E  E     E
|--------0-----0-----0----|--------------------|
|--------2-----2-----2----|-----3--3-----3-----|
|--2----------------------|-----1--1-----1-----|
|-------------------------|--2-----------------|
|-------------------------|--------------------|
|-------------------------|--------------------|


   S  S  S  S  S  S  S  S    S  S  S  S  S  S  S  S
|-------------------------|-------------------------|
|----12-14-15-17-19-21-22-|-22-21-19-17-17-15-14-12-|
|-14----------------------|-------------------------|
|-------------------------|-------------------------|
|-------------------------|-------------------------|
|-------------------------|-------------------------|
|
|  E     E     E     E       E     E     E     E
|--------0-----0-----0----|-------------------------|
|--------2-----2-----2----|--------5-----5-----5----|
|--2----------------------|--4-----7-----7-----7----|
|-------------------------|-------------------------|
|-------------------------|-------------------------|
|-------------------------|-------------------------|


   S  S  S S  S  S  S S    Q    S  S  S  S
|----12----9--7-10----7-|--5---21-22-21-19-|
|-14----10----------9---|------------------|
|-----------------------|------------------|
|-----------------------|------------------|
|-----------------------|------------------|
|-----------------------|------------------|
|
|  S  S  S S  S  S  S S    E E  Q
|-----------------------|------------------|
|-----------------------|------------------|
|-----------------------|------------------|
|--7--------------------|------------------|
|--------9--------------|-12---------------|
|------------10----12---|------------------|


   S  S  S  S  S  S  S  S    S  S  S  S  S  S  S  S
|-17-19-17-16-14-17-16-14-|-13-14-16----------------|
|-------------------------|----------17----16-17----|
|-------------------------|-------------18-------18-|
|-------------------------|-------------------------|
|-------------------------|-------------------------|
|-------------------------|-------------------------|
|
|  E     E     E     E       E     E     E     E
|-------------------------|-------------------------|
|-------------------------|-------------------------|
|-------------------------|-------------------------|
|-------------------------|-------------------------|
|-------16----16----16----|-------16----16----16----|
|-14----17----17----17----|-16----19----19----19----|


   S  S  S  S  S  S  S  S    S  S  S  S  S  S  S  S
|-------------------------|-21-19-21-19-21-19-21----|
|-19-17-19-21-22-21-22-24-|----------------------23-|
|-------------------------|-------------------------|
|-------------------------|-------------------------|
|-------------------------|-------------------------|
|-------------------------|-------------------------|
|
|  E     E     E     E       E     E     E     E
|-------------------------|-------------------------|
|-------------------------|-------------------------|
|-------------------------|--------6-----6-----6----|
|-------------------------|--------6-----6-----4----|
|-------16----16----16----|--4----------------------|
|-14----17----17----17----|-------------------------|


   S  S  S  S  S  S  S  S    S  S  S  S  S  S  S  S
|-22-21-22-21-22-21-22-21-|-22-21-19-17-16-17-19----|
|-------------------------|----------------------21-|
|-------------------------|-------------------------|
|-------------------------|-------------------------|
|-------------------------|-------------------------|
|-------------------------|-------------------------|
|
|  E     E     E     E       E     E     E     E
|-------------------------|-------------------------|
|-------------------------|--------0-----0-----0----|
|--------4-----4-----4----|--------1-----1-----1----|
|--------4-----4-----4----|-------------------------|
|--2----------------------|--2----------------------|
|-------------------------|-------------------------|


                           1/4
   S  S  S  S  S  S  S  S    Q     S  S  S  S
|-------21----------------|-----|-------------|
|-22-24----19-17-19-21----|-19--|-17-15-14-12-|
|----------------------21-|-----|-------------|
|-------------------------|-----|-------------|
|-------------------------|-----|-------------|
|-------------------------|-----|-------------|
|
|  E     E     E     E       Q     W
|-------------------------|-----|-------------|
|-------------------------|-----|-------------|
|--------2-----------4----|--2--|-------------|
|--------4-----------6----|--4--|-------------|
|--4-----------4----------|-----|-------------|
|-------------------------|-----|-------------|


 2/4
   S  S  S  S  S  S  S  S    S  S  S  S  S  S  S  S
|-------------------------|-------------------------|
|-10-12-14-15-17-19-21-22-|-22-21-19-17-17-15-14-12-|
|-------------------------|-------------------------|
|-------------------------|-------------------------|
|-------------------------|-------------------------|
|-------------------------|-------------------------|
|
|  E     E     E     E       E     E     E     E
|--------0-----0-----0----|-------------------------|
|--------2-----2-----2----|--------2-----2-----2----|
|--2----------------------|--------2-----2-----2----|
|-------------------------|--4----------------------|
|-------------------------|-------------------------|
|-------------------------|-------------------------|


   S  S  S  S  S  S  S  S    E  E  S  S  S  S
|-------------------------|--------------------|
|-10-12-14-15-17-19-21-22-|-23-24--------------|
|-------------------------|-------21-19-18-16--|
|-------------------------|--------------------|
|-------------------------|--------------------|
|-------------------------|--------------------|
|
|  E     E     E     E       E  E  E     E
|--------0-----0-----0----|--------------------|
|--------2-----2-----2----|-----3--3-----3-----|
|--2----------------------|-----1--1-----1-----|
|-------------------------|--2-----------------|
|-------------------------|--------------------|
|-------------------------|--------------------|


   S  S  S  S  S  S  S  S    S  S  S  S  S  S  S  S
|-------------------------|-------------------------|
|----12-14-15-17-19-21-22-|-22-21-19-17-17-15-14-12-|
|-14----------------------|-------------------------|
|-------------------------|-------------------------|
|-------------------------|-------------------------|
|-------------------------|-------------------------|
|
|  E     E     E     E       E     E     E     E
|--------0-----0-----0----|-------------------------|
|--------2-----2-----2----|--------5-----5-----5----|
|--2----------------------|--4-----7-----7-----7----|
|-------------------------|-------------------------|
|-------------------------|-------------------------|
|-------------------------|-------------------------|


   S  S  S S  S  S  S S    Q    S  S  S  S
|----12----9--7-10----7-|--5---21-22-21-19-|
|-14----10----------9---|------------------|
|-----------------------|------------------|
|-----------------------|------------------|
|-----------------------|------------------|
|-----------------------|------------------|
|
|  S  S  S S  S  S  S S    E E  Q
|-----------------------|------------------|
|-----------------------|------------------|
|-----------------------|------------------|
|--7--------------------|------------------|
|--------9--------------|-12---------------|
|------------10----12---|------------------|


   S  S  S  S  S  S  S  S    S  S  S  S  S  S  S  S
|-17-19-17-16-14-17-16-14-|-13-14-16----------------|
|-------------------------|----------17----16-17----|
|-------------------------|-------------18-------18-|
|-------------------------|-------------------------|
|-------------------------|-------------------------|
|-------------------------|-------------------------|
|
|  E     E     E     E       E     E     E     E
|-------------------------|-------------------------|
|-------------------------|-------------------------|
|-------------------------|-------------------------|
|-------------------------|-------------------------|
|-------16----16----16----|-------16----16----16----|
|-14----17----17----17----|-16----19----19----19----|


   S  S  S  S  S  S  S  S    S  S  S  S  S  S  S  S
|-------------------------|-21-19-21-19-21-19-21----|
|-19-17-19-21-22-21-22-24-|----------------------23-|
|-------------------------|-------------------------|
|-------------------------|-------------------------|
|-------------------------|-------------------------|
|-------------------------|-------------------------|
|
|  E     E     E     E       E     E     E     E
|-------------------------|-------------------------|
|-------------------------|-------------------------|
|-------------------------|--------6-----6-----6----|
|-------------------------|--------6-----6-----4----|
|-------16----16----16----|--4----------------------|
|-14----17----17----17----|-------------------------|


   S  S  S  S  S  S  S  S    S  S  S  S  S  S  S  S
|-22-21-22-21-22-21-22-21-|-22-21-19-17-16-17-19----|
|-------------------------|----------------------21-|
|-------------------------|-------------------------|
|-------------------------|-------------------------|
|-------------------------|-------------------------|
|-------------------------|-------------------------|
|
|  E     E     E     E       E     E     E     E
|-------------------------|-------------------------|
|-------------------------|--------0-----0-----0----|
|--------4-----4-----4----|--------1-----1-----1----|
|--------4-----4-----4----|-------------------------|
|--2----------------------|--2----------------------|
|-------------------------|-------------------------|


                           1/4              2/4
   S  S  S  S  S  S  S  S    Q     E  E       Q    E  E       E  E  E  E
|-------21----------------|-----|----------|-21------------|-21-19-17-16-----|
|-22-24----19-17-19-21----|-19--|-22-24----|------22-24----|-----------------|
|----------------------21-|-----|----------|-18------------|-18-16-14-13-----|
|-------------------------|-----|-19-21----|------19-21----|-----------------|
|-------------------------|-----|----------|---------------|-----------------|
|-------------------------|-----|----------|---------------|-----------------|
|
|  E     E     E     E       Q     E  S  S    E E  E  S  S    E  E  E  S S
|-------------------------|-----|----------|---------------|-----------------|
|-------------------------|-----|----------|---------------|-----------------|
|--------2-----------4----|--2--|----------|---------------|-----------------|
|--------4-----------6----|--4--|-----4--6-|--7-7--7-------|-----------------|
|--4-----------4----------|-----|-------10-|--7-7--7--9-11-|-12-12-12--2-4---|
|-------------------------|-----|----------|------------15-|-12-12-12----8---|


   E  E  E  E       E  E  E  E       Q     E  E
|-14-16-17-19----|----------------|-21-------------|
|----------------|-21----22-24----|-------22-24----|
|-11-13-14-16----|----21----------|-18-------------|
|----------------|-18----19-21----|-------19-21----|
|----------------|----19----------|----------------|
|----------------|----------------|----------------|
|
|  E  E  E  S  S    E  E  E  S  S    E  E  E  S  S
|----------------|----------------|----------------|
|----------------|----------------|----------------|
|----------------|----------------|----------------|
|----------------|----------------|----------------|
|--5--5--5--4--6-|--7--7--7--9-11-|-12-12-12----11-|
|--5--5--5----10-|--7--7--7----15-|-12-12-12-14-15-|


                                 1/4              2/4
   E  E  E  E      E  E    E  E    Q     E  E       Q    E  E
|-21-19-17-16---|-14-19---------|-----|----------|-21--------------|
|---------------|---------21----|-22--|-22-24----|------22-24------|
|-18-16-14-13---|-11-16------21-|-----|----------|-18--------------|
|---------------|---------18----|-19--|-19-21----|------19-21------|
|---------------|------------19-|-----|----------|-----------------|
|---------------|---------------|-----|----------|-----------------|
|
|  E  E  E  S S    E  S S  E  E    Q     E  S  S    E E  E  S  S
|---------------|---------------|-----|----------|-----------------|
|---------------|---------------|-----|----------|-----------------|
|---------------|---------------|-----|----------|-----------------|
|---------------|---------------|-----|-----4--6-|--7-7--7---------|
|-12-12-12--2-4-|--5--5-6--7--7-|-----|-------10-|--7-7--7--9-11---|
|-12-12-12----8-|--5--5----7--7-|--5--|----------|------------15---|


   E  E  E  E      E  E  E  E       E  E  E  E       Q     E  E
|-21-19-17-16---|-14-16-17-19----|----------------|-21-------------|
|---------------|----------------|-21----22-24----|-------22-24----|
|-18-16-14-13---|-11-13-14-16----|----21----------|-18-------------|
|---------------|----------------|-18----19-21----|-------19-21----|
|---------------|----------------|----19----------|----------------|
|---------------|----------------|----------------|----------------|
|
|  E  E  E  S S    E  E  E  S  S    E  E  E  S  S    E  E  E  S  S
|---------------|----------------|----------------|----------------|
|---------------|----------------|----------------|----------------|
|---------------|----------------|----------------|----------------|
|---------------|----------------|----------------|----------------|
|-12-12-12--2-4-|--5--5--5--4--6-|--7--7--7--9-11-|-12-12-12----11-|
|-12-12-12----8-|--5--5--5----10-|--7--7--7----15-|-12-12-12-14-15-|


                                 1/4
   E  E  E  E      E  E    E  E    Q     S  S  S  S
|-21-19-17-16---|-14-19---------|-----|-------------|
|---------------|---------21----|-22--|-------------|
|-18-16-14-13---|-11-16------21-|-----|-------------|
|---------------|---------18----|-19--|-21-19-18-19-|
|---------------|------------19-|-----|-------------|
|---------------|---------------|-----|-------------|
|
|  E  E  E  S S    E  S S  E  E    Q     W
|---------------|---------------|-----|-------------|
|---------------|---------------|-----|-------------|
|---------------|---------------|-----|-------------|
|---------------|---------------|-----|-------------|
|-12-12-12--2-4-|--5--5-6--7--7-|-----|-------------|
|-12-12-12----8-|--5--5----7--7-|--5--|-------------|


 2/4
   E E  S  S  S  S    E E  S  S  S  S    S  S  S  S  S  S  S  S
|------------------|-12---13-12-11-12-|-19-17-16-17-19-17-16-17-|
|------15-13-12-13-|------------------|-------------------------|
|-17---------------|------------------|-------------------------|
|------------------|------------------|-------------------------|
|------------------|------------------|-------------------------|
|------------------|------------------|-------------------------|
|
|  E E  E     E       E E  E     E       E     E     E     E
|------------------|------------------|-------------------------|
|----5--5-----5----|----5--5-----5----|--------5-----------5----|
|----5--5-----5----|----5--5-----5----|--------5-----------5----|
|--7---------------|--7---------------|--7-----------7----------|
|------------------|------------------|-------------------------|
|------------------|------------------|-------------------------|


   Q    S S  S S    S S  S S  S S  S S
|-20--------20---|-19---17---15---17---|
|------22--------|-20---19---17---19---|
|----------------|---------------------|
|----------------|---------------------|
|----------------|---------------------|
|----------------|---------------------|
|
|  E E  E    E      E    E    E    E
|----------------|---------------------|
|----5--5----5---|---------------------|
|----5--5----5---|-------9----9----9---|
|--7-------------|-------9----9----9---|
|----------------|--7------------------|
|----------------|---------------------|


                                             1/4
   S S  S S  S S  S S    S S  S S  S S  S S    Q
|-19---17---15---17---|-19---17---15---14---|-12--|
|-20---19---17---19---|-20---19---17---16---|-----|
|---------------------|---------------------|-----|
|---------------------|---------------------|-----|
|---------------------|---------------------|-----|
|---------------------|---------------------|-----|
|
|  E    E    E    E      E    E    E    E      Q
|---------------------|---------------------|-----|
|---------------------|---------------------|-----|
|-------9----9----9---|-------9-------------|-----|
|-------9----9----9---|-------9---------9---|-----|
|--7------------------|--7------------------|--7--|
|---------------------|------------7--------|-----|


              2/4
   S  S S  S   E E  S S S S    E E  S  S  S  S
|------------|-8---10-8-7-8-|-12---13-12-11-12-|
|-12-10-9-10-|--------------|------------------|
|------------|--------------|------------------|
|------------|--------------|------------------|
|------------|--------------|------------------|
|------------|--------------|------------------|
|
|  W           E E  E   E      E E  E     E
|------------|--------------|------------------|
|------------|---5--5---5---|----5--5-----5----|
|------------|---5--5---5---|----5--5-----5----|
|------------|-7------------|--7---------------|
|------------|--------------|------------------|
|------------|--------------|------------------|


   S  S  S  S  S  S  S  S    Q    S S  S S
|-19-17-16-17-19-17-16-17-|-20--------20---|
|-------------------------|------22--------|
|-------------------------|----------------|
|-------------------------|----------------|
|-------------------------|----------------|
|-------------------------|----------------|
|
|  E     E     E     E       E E  E    E
|-------------------------|----------------|
|--------5-----------5----|----5--5----5---|
|--------5-----------5----|----5--5----5---|
|--7-----------7----------|--7-------------|
|-------------------------|----------------|
|-------------------------|----------------|


   S S  S S  S S  S S    S S  S S  S S  S S
|-19---17---15---17---|-19---17---15---17---|
|-20---19---17---19---|-20---19---17---19---|
|---------------------|---------------------|
|---------------------|---------------------|
|---------------------|---------------------|
|---------------------|---------------------|
|
|  E    E    E    E      E    E    E    E
|---------------------|---------------------|
|---------------------|---------------------|
|-------9----9----9---|-------9----9----9---|
|-------9----9----9---|-------9----9----9---|
|--7------------------|--7------------------|
|---------------------|---------------------|


                       1/4               2/4
   S S  S S  S S  S S    Q     S S  S S    S S  S S  S  S  S  S
|-19---17---15---14---|-12--|-12---13---|-15---15---17-15-13-12-|
|-20---19---17---16---|-----|-13---15---|-17---17---------------|
|---------------------|-----|-----------|-----------------------|
|---------------------|-----|-----------|-----------------------|
|---------------------|-----|-----------|-----------------------|
|---------------------|-----|-----------|-----------------------|
|
|  E    E    E    E      Q     W           E    E    E     E
|---------------------|-----|-----------|-----------------------|
|---------------------|-----|-----------|-----------------------|
|-------9-------------|-----|-----------|-----------------------|
|-------9---------9---|-----|-----------|------10---------14----|
|--7------------------|--7--|-----------|-----------------------|
|------------7--------|-----|-----------|--8--------12----------|


   Q     S S  S S    S S  S S  S  S  S  S
|-10----12---13---|-15---15---17-15-13-12-|
|-12----13---15---|-17---17---------------|
|-----------------|-----------------------|
|-----------------|-----------------------|
|-----------------|-----------------------|
|-----------------|-----------------------|
|
|  E  E  Q           E    E    E     E
|-----------------|-----------------------|
|-----------------|-------1----------5----|
|-----------------|-----------------------|
|----17-----------|------------2----------|
|-----------------|--3--------------------|
|-15--------------|-----------------------|


   Q    S S  S S    S S  S S  S  S  S S    Q     S S  S S
|-10----8---10---|-12---12---13-12-10-8-|--7-----8---10---|
|-12---10---12---|-13---13--------------|--9----10---12---|
|----------------|----------------------|-----------------|
|----------------|----------------------|-----------------|
|----------------|----------------------|-----------------|
|----------------|----------------------|-----------------|
|
|  E E  Q           E    E    E     E      E  E  Q
|----------------|----------------------|-----------------|
|----------------|----------------------|-----------------|
|----------------|----------------------|-----------------|
|--5-------------|-------7---------10---|----14-----------|
|----------------|----------------------|-----------------|
|----------------|--5---------8---------|-12--------------|


                        1/4
   S S  S S  S  S  S S    Q     S S S S
|-12---12---13-12-10-8-|--7---|-7-5-4-5--|
|-13---13--------------|--9---|----------|
|----------------------|------|----------|
|----------------------|------|----------|
|----------------------|------|----------|
|----------------------|------|----------|
|
|  E    E    E     E      E E   W
|----------------------|------|----------|
|----------------------|------|----------|
|----------------------|------|----------|
|-----------------10---|------|----------|
|--0---12--------------|------|----------|
|------------8---------|-12---|----------|


 2/4
   E  E  S S  S S    E  E  S  S  S  S    S  S  S  S  S  S  S  S
|--8----10-8--7-8-|-12----13-12-11-12-|-19-17-16-17-19-17-16-17-|
|-----------------|-------------------|-------------------------|
|-----------------|-------------------|-------------------------|
|-----------------|-------------------|-------------------------|
|-----------------|-------------------|-------------------------|
|-----------------|-------------------|-------------------------|
|
|  E  E  E    E      E  E  E     E       E     E     E     E
|-----------------|-------------------|-------------------------|
|-----------------|-------------------|-------------------------|
|-----------------|-------------------|-------------------------|
|----14-14---14---|----14-14----14----|-------14----------14----|
|-12-15-15---15---|-12-15-15----15----|-12----15----12----15----|
|-----------------|-------------------|-------------------------|


   Q     S S  S S    S S  S S  S S  S S
|-20---------20---|-20---19---17---16---|
|-------22--------|---------------------|
|-----------------|---------------------|
|-----------------|---------------------|
|-----------------|---------------------|
|-----------------|---------------------|
|
|  E  E  E    E      E    E    E    E
|-----------------|---------------------|
|-----------------|---------------------|
|-----------------|---------------------|
|----13-13---13---|------14---------9---|
|----12-12---12---|------12---------8---|
|-13--------------|-12--------10--------|


                                          1/4
   S S  S S  S S  S S    Q    S  S  S  S    E E
|-17------------------|------------------|------|
|------17---18--------|------------------|------|
|----------------19---|-17---------------|------|
|---------------------|------19-21-21-21-|-21---|
|---------------------|---------24-24-24-|-24---|
|---------------------|------------------|------|
|
|  E    E    E    E      E E  E     E       Q
|---------------------|------------------|------|
|---------------------|------------------|------|
|-----------------4---|--2-2--1-----1----|--2---|
|-------7---------3---|--2-2--2-----2----|------|
|-------7----5--------|------------------|------|
|--8------------------|------------------|------|


             2/4
   S S  S S    S S  S S  S  S  S  S    Q    S S  S S
|-----------|-----------------------|----------------|
|-----------|-20---20---22-20-18-17-|-15---17---18---|
|-21---22---|-21---21---------------|-16---17---19---|
|-22---24---|-----------------------|----------------|
|-----------|-----------------------|----------------|
|-----------|-----------------------|----------------|
|
|  W           E    E    E     E       E E  Q
|-----------|-----------------------|----3-----------|
|-----------|-------1----------5----|----------------|
|-----------|-----------------------|----------------|
|-----------|------------2----------|--5-------------|
|-----------|--3--------------------|----------------|
|-----------|-----------------------|----------------|


   S S  S S  S  S  S  S    Q    S S  S S    S S  S S  S  S  S  S
|-----------------------|----------------|-----------------------|
|-20---20---22-20-18-17-|-15---13---15---|-17---17---18-17-15-13-|
|-21---21---------------|-16---14---16---|-17---17---------------|
|-----------------------|----------------|-----------------------|
|-----------------------|----------------|-----------------------|
|-----------------------|----------------|-----------------------|
|
|  E    E    E     E       E E  Q           E    E    E     E
|-----------------------|----------------|-----------------------|
|-------1----------5----|----------------|-----------------------|
|-----------------------|----------------|-----------------------|
|------------2----------|--5-------------|-------7---------10----|
|--3--------------------|----------------|-----------------------|
|-----------------------|----------------|--5---------8----------|


   Q     S S  S S    S S  S S  S  S  S  S
|-----------------|------------------------|
|-12----13---15---|-17---17---18-17-15-13--|
|-13----14---16---|-17---17----------------|
|-----------------|------------------------|
|-----------------|------------------------|
|-----------------|------------------------|
|
|  E  E  Q           E    E    E     E
|-----------------|------------------------|
|-----------------|------------------------|
|-----------------|------------------------|
|----14-----------|-----------------10-----|
|-----------------|--0---12----------------|
|-12--------------|------------8-----------|


 1/4                 2/4
   Q      S  S S  S    E  E  S S  S S    E  E  S  S  S  S
|------|------------|--8----10-8--7-8-|-12----13-12-11-12-|
|-12---|-12-10-9-10-|-----------------|-------------------|
|-13---|------------|-----------------|-------------------|
|------|------------|-----------------|-------------------|
|------|------------|-----------------|-------------------|
|------|------------|-----------------|-------------------|
|
|  E E    W            E  E  E    E      E  E  E     E
|------|------------|-----------------|-------------------|
|------|------------|-----------------|-------------------|
|------|------------|-----------------|-------------------|
|------|------------|----14-14---14---|----14-14----14----|
|------|------------|-12-15-15---15---|-12-15-15----15----|
|-12---|------------|-----------------|-------------------|


   S  S  S  S  S  S  S  S    Q     S S  S S
|-19-17-16-17-19-17-16-17-|-20---------20---|
|-------------------------|-------22--------|
|-------------------------|-----------------|
|-------------------------|-----------------|
|-------------------------|-----------------|
|-------------------------|-----------------|
|
|  E     E     E     E       E  E  E    E
|-------------------------|-----------------|
|-------------------------|-----------------|
|-------------------------|-----------------|
|-------14----------14----|----13-13---13---|
|-12----15----12----15----|----12-12---12---|
|-------------------------|-13--------------|


   S S  S S  S S  S S    S S  S S  S S  S S
|-20---19---17---16---|-17------------------|
|---------------------|------17---18--------|
|---------------------|----------------19---|
|---------------------|---------------------|
|---------------------|---------------------|
|---------------------|---------------------|
|
|  E    E    E    E      E    E    E    E
|---------------------|---------------------|
|---------------------|---------------------|
|---------------------|-----------------4---|
|------14---------9---|-------7---------3---|
|------12---------8---|-------7----5--------|
|-12--------10--------|--8------------------|


                    1/4                  2/4
   Q    S  S  S  S    E E    S  S  S  S    S  S E  S  S  S  S
|------------------|------|----17----19-|----21------17----19--|
|------------------|------|-------------|----------------------|
|-17---------------|------|-------16----|-18------------16-----|
|------19-21-21-21-|-21---|-19----------|---------19-----------|
|---------24-24-24-|-24---|-------------|----------------------|
|------------------|------|-------------|----------------------|
|
|  E E  E     E       Q      E     S  S    E    E  E     S  S
|------------------|------|-------------|----------------------|
|------------------|------|-------------|----------------------|
|--2-2--1-----1----|--2---|-------------|----------------------|
|--2-2--2-----2----|------|--------4--6-|--7----7--7-----------|
|------------------|------|----------10-|--7----7--7-----9-11--|
|------------------|------|-------------|------------------15--|


   S  S  S  S  S  S  S  S    S  S  S  S  S  S  S  S
|----21----19----17----16-|----14----16----17----19-|
|-------------------------|-------------------------|
|-18----------------------|-------13----14----16----|
|-------21----19----18----|-16----------------------|
|-------------------------|-------------------------|
|-------------------------|-------------------------|
|
|  E     E     E     S  S    E     E     E     S  S
|-------------------------|-------------------------|
|-------------------------|-------------------------|
|-------------------------|-------------------------|
|-------------------------|-------------------------|
|-12----12----12-----2--4-|--5-----5-----5-----4--6-|
|-12----12----12--------8-|--5-----5-----5-------10-|


   S  S  S  S  S  S  S  S    S  S  E  S  S  S  S
|----16----12----17----19-|----21-------17----19--|
|-------------10----------|-----------------------|
|-------------------16----|-18-------------16-----|
|-18----14----------------|----------19-----------|
|-------------------------|-----------------------|
|-------------------------|-----------------------|
|
|  E     E     E     S  S    E     E  E     S  S
|-------------------------|-----------------------|
|-------------------------|-----------------------|
|-------------------------|-----------------------|
|-------------------------|-----------------------|
|--7-----7-----7-----9-11-|-12----12-12-------11--|
|--7-----7-----7-------15-|-12----12-12----14-15--|


   S  S  S  S  S  S  S  S    S  S  S  S  S  S  S  S
|----21----19----17----16-|----14----19----16----12-|
|-------------------------|-------12----------------|
|-18----------------------|-------------------------|
|-------21----19----18----|-16----------18----14----|
|-------------------------|-------------------------|
|-------------------------|-------------------------|
|
|  E     E     E     S  S    E     S  S  E     E
|-------------------------|-------------------------|
|-------------------------|-------------------------|
|-------------------------|-------------------------|
|-------------------------|-------------------------|
|-12----12----12-----2--4-|--5-----5--6--7-----7----|
|-12----12----12--------8-|--5-----5-----7-----7----|


 1/4   2/4
   Q     Q    E.    S    Q   Q      Q   Q
|-17--|-17---21----21-|-21-------|-21--------|
|-----|---------------|-22-------|-22--------|
|-14--|-14---18-------|-21-------|-21--------|
|-----|---------------|----------|-----------|
|-----|---------------|----------|-----------|
|-----|---------------|----------|-----------|
|
|  Q     E E  E  E       E E E E    E E E E
|-----|---------------|----------|-----------|
|-----|---------------|----------|-----------|
|-----|---------------|----------|-----------|
|-----|--7-7--7--7----|--7-7-7-7-|--7-7-7-7--|
|-----|--7-7--7--7----|--7-7-7-7-|--7-7-7-7--|
|--5--|---------------|----------|-----------|


   S  S  S  S  S  S  S  S    H
|-22-21-19-21-22-21-19-21-|-22-------|
|-------------------------|-22-------|
|-------------------------|-23-------|
|-------------------------|----------|
|-------------------------|----------|
|-------------------------|----------|
|
|  E     E     E     E       E E E E
|-------------------------|----------|
|-------------------------|----------|
|-------------------------|----------|
|--7-----7-----7-----7----|----------|
|--7-----7-----7-----7----|--5-5-5-5-|
|-------------------------|--5-5-5-5-|


   S S  S S  S S  S S    Q.      E    Q   Q      Q   Q
|-21---21---21---21---|-19------24-|-21-------|-21-------|
|-22---22---22---22---|-21---------|-22-------|-22-------|
|-21---21---21---21---|-21---------|-21-------|-21-------|
|---------------------|------------|----------|----------|
|---------------------|------------|----------|----------|
|---------------------|------------|----------|----------|
|
|  E    E    E    E      E  E E  E    E E E E    E E E E
|---------------------|------------|----------|----------|
|---------------------|------------|----------|----------|
|---------------------|------------|----------|----------|
|--7----7----7----7---|------------|--7-7-7-7-|--7-7-7-7-|
|--7----7----7----7---|--7--7-7--7-|--7-7-7-7-|--7-7-7-7-|
|---------------------|--7--7-7--7-|----------|----------|


   S  S  S  S  S  S  S  S    H          Q.     E
|-22-21-19-21-22-21-19-21-|-22-------|-21--------|
|-------------------------|-22-------|-22--------|
|-------------------------|-23-------|-21--------|
|-------------------------|----------|-----------|
|-------------------------|----------|-----------|
|-------------------------|----------|-----------|
|
|  E     E     E     E       E E E E    E  E E E
|-------------------------|----------|-----------|
|-------------------------|----------|-----------|
|-------------------------|----------|-----------|
|--7-----7-----7-----7----|----------|--7--7-7-7-|
|--7-----7-----7-----7----|--5-5-5-5-|--7--7-7-7-|
|-------------------------|--5-5-5-5-|-----------|


   S S  S S  S S  S S    Q        E.      S    H
|-21---21---21---21---|----------21------21-|-21-----------------|
|-22---22---22---22---|-22------------------|--------------------|
|-21---21---21---21---|---------------------|--------------------|
|---------------------|---------------------|--------------------|
|---------------------|---------------------|--------------------|
|---------------------|---------------------|--------------------|
|
|  E    E    E    E      S S S S  S  S S  S    S S S S S S S S
|---------------------|---------------------|--------------------|
|---------------------|----5---5-----5----5-|----5---5---5---5---|
|---------------------|------6---------6----|------6-------6-----|
|---------------------|--7--------7---------|--7-------7---------|
|--7----7----7----7---|---------------------|--------------------|
|--7----7----7----7---|---------------------|--------------------|


   H                  S  S  S  S  S  S  S  S
|-21---------------|-22-21-19-21-22-21-19-21-|
|------------------|-------------------------|
|------------------|-------------------------|
|------------------|-------------------------|
|------------------|-------------------------|
|------------------|-------------------------|
|
|  S S S S S S S S    S  S  S  S  S  S  S  S
|------------------|-------------------------|
|----5---5---5---5-|-----5-----5-----5-----5-|
|------6-------6---|--------6-----------6----|
|--7-------7-------|--7-----------7----------|
|------------------|-------------------------|
|------------------|-------------------------|


   H                  S S  S S  S S  S S
|-22---------------|-21---21---21---21---|
|-22---------------|-22---22---22---22---|
|------------------|---------------------|
|------------------|---------------------|
|------------------|---------------------|
|------------------|---------------------|
|
|  S S S S S S S S    S S  S S  S S  S S
|------------------|---------------------|
|----7---7---7---7-|----5----5----5----5-|
|------7-------7---|-------6----6----6---|
|--7-------7-------|--7------------------|
|------------------|---------------------|
|------------------|---------------------|


   Q.            E      Q   Q      Q   Q      S  S  S  S  S  S  S  S
|-19------------24---|-21-------|-21-------|-22-21-19-21-22-21-19-21-|
|-21-----------------|-22-------|-22-------|-------------------------|
|--------------------|----------|----------|-------------------------|
|--------------------|----------|----------|-------------------------|
|--------------------|----------|----------|-------------------------|
|--------------------|----------|----------|-------------------------|
|
|  S  S S S S S  S S    E E E E    E E E E    E     E     E     E
|--------------------|----------|----------|-------------------------|
|-----5---5---5----5-|----------|----------|-------------------------|
|-------6--------6---|----------|----------|-------------------------|
|--------------------|--7-7-7-7-|--7-7-7-7-|--7-----7-----7-----7----|
|--7--------7--------|--7-7-7-7-|--7-7-7-7-|--7-----7-----7-----7----|
|--------------------|----------|----------|-------------------------|


   H          Q   Q      S S  S S  S S  S S
|-22-------|-21-------|-21---21---21---21----|
|----------|----------|----------------------|
|----------|-19-------|----------------------|
|----------|----------|----------------------|
|----------|----------|----------------------|
|----------|----------|----------------------|
|
|  E E E E    E E E E    E    E    E    E
|----------|----------|----------------------|
|----------|----------|----------------------|
|----------|----------|----------------------|
|----------|--7-7-7-7-|----------------------|
|--5-5-5-5-|--7-7-7-7-|--7----7----7----7----|
|--5-5-5-5-|----------|--7----7----7----7----|


   Q.      E    Q.      E    Q.      E    E  E  E  E    Q   Q     Q  Q
|---------21-|---------24-|---------21-|----21----24-|-----17--|-17-----*|
|-22---------|-22---------|-22---------|-22----22----|-22------|--------*|
|---------18-|---------21-|---------18-|----18----21-|-----18--|-18-----*|
|-19---------|-19---------|-19---------|-19----19----|-19--19--|-19-----*|
|------------|------------|------------|-------------|---------|--------*|
|------------|------------|------------|-------------|---------|--------*|
|
|  E  E E  E    E  E E  E    E  E E  E    E  E  E  E    Q   Q     Q  Q
|------------|------------|------------|-------------|---------|--------*|
|------------|------------|------------|-------------|---------|--------*|
|------------|------------|------------|-------------|---------|--------*|
|--7--7-7--7-|--7--7-7--7-|--7--7-7--7-|--7--7--7--7-|------7--|--7-----*|
|--7--7-7--7-|--7--7-7--7-|--7--7-7--7-|--7--7--7--7-|------7--|--7-----*|
|------------|------------|------------|-------------|------5--|--5-----*|


Duration Legend
---------------
W - whole; H - half; Q - quarter; E - 8th; S - 16th; T - 32nd; X - 64th; a - acciaccatura
+ - note tied to previous; . - note dotted; .. - note double dotted
Uncapitalized letters represent notes that are staccato (1/2 duration)
Irregular groupings are notated above the duration line
Duration letters will always appear directly above the note/fret number it represents the
duration for.  Duration letters with no fret number below them represent rests.  Multi-
bar rests are notated in the form Wxn, where n is the number of bars to rest for.  Low
melody durations appear below the staff

Tablature Legend
----------------
 h   - hammer-on
 p   - pull-off
 b   - bend
 pb  - pre-bend
 r   - bend release (if no number after the r, then release immediately)
 /\  - slide into or out of (from/to "nowhere")
 s   - legato slide
 S   - shift slide
  - natural harmonic
[n]  - artificial harmonic
n(n) - tapped harmonic
 ~   - vibrato
 tr  - trill
 T   - tap
 TP  - trem. picking
 PM  - palm muting
\n/  - tremolo bar dip; n = amount to dip
 \n  - tremolo bar down
 n/  - tremolo bar up
/n\  - tremolo bar inverted dip
 =   - hold bend; also acts as connecting device for hammers/pulls
 <>  - volume swell (louder/softer)
 x   - on rhythm slash represents muted slash
 o   - on rhythm slash represents single note slash

Misc Legend
-----------
 |  - bar
||  - double bar
||o - repeat start
o|| - repeat end
*|  - double bar (ending)
 :  - bar (freetime)
 $  - Segno
 &  - Coda
Tempo markers -  = BPM(8/16=s8/s16),
where s8 = swing 8ths, s16 = swing 16ths

I wouldn't mind you leaving a comment and giving me a rating, thanks.

Colton Wood/ A.K.A: AwokenDEMON

            
            
Suggest correction
Creating personal tab
Creating personal tab
You can edit any tab online and save it as your Personal.

You can edit, replace or remove any tab part or add personal notes – all changes will be seen only by you.

Personal tabs can be accessed anytime from any device, even offline.
Learn more »
comments
print report bad tab
2 comments total.
0 reply
guitargod9nine 10 Jul 25, 2010 12:00 PM

Wow great except I was just wanting to learn that beginning part

0 reply
distintaaloqseparece 10 Oct 18, 2016 06:54 PM

didn't like this contribution

guest
You may want to rate the tab now too:
select rating
Wanna post a correction for this tab? Suggest correction