Oops, an error
Loading. Please wait.

Apple Tree bass

version 1
version 1

Whole song

Interactive

6,542 views 1 this week
3 commentsread comments
1 2 3 4 5
x 7
add to favorites
×
Save as Personal and add changes to this tab that will be seen only by you. Learn more ›
×
You can save this tab as Personal to edit and correct it or add notes. All changes will be seen only by you. Learn more »
launch autoscroll
font size
0
reset
guitar tuner
edit
Autoscroll
slow
fast
+/-
esc
set tempo
stop
Author
Difficulty
Wolfmother	“Apple Tree”

G-|-----|-----|-----|----|
D-|-----|-----|-----|----|
A-|-----|-----|-----|----|
E-|--6--|--6--|--6--|--6-|

G-|-------------------|
D-|-------------------|
A-|--------------4h6--|
E-|-6-6-6-6-6-4h6---6-|	x4

G-|-----|-----|-----|----|
D-|-----|-----|-----|----|
A-|-----|-----|-----|----|
E-|--6--|--6--|--6--|--6-|

G-|-------------------|
D-|-------------------|
A-|--------------4h6--|
E-|-6-6-6-6-6-4h6---6-|	x4

G-|-----|
D-|-----|
A-|-----|
E-|-4-6-|	x9

G-|-------------------------|
D-|-------------------------|
A-|-4-4-4-4-4-4-4-4-4-4-----|
E-|---------------------4-6-|	x3

G-|---|---|---|
D-|---|---|---|
A-|---|---|---|
E-|-6-|-6-|-6-|

G-|-------------------------|
D-|-------------------------|
A-|-4-4-4-4-4-4-4-4-4-4-----|
E-|---------------------4-6-|	x4

G-|---|
D-|---|
A-|---|
E-|-6-|	x3

G-|-------------------------|
D-|-------------------------|
A-|-4-4-4-4-4-4-4-4-4-4-----|
E-|---------------------4-6-|	x4

G-|-----|
D-|-----|
A-|-----|
E-|-4-6-|	x9

G-|-------------------------|
D-|-------------------------|
A-|-4-4-4-4-4-4-4-4-4-4-----|
E-|---------------------4-6-|	x3

G-|-----|
D-|-----|
A-|-----|
E-|-4-6-|

G-|--------------------|
D-|--------------6h8-8-|
A-|----------6h8-------|
E-|--4-6—6h8-----------|	x10

G-|-------------------------|
D-|-------------------------|
A-|-4-4-4-4-4-4-4-4-4-4-----|
E-|---------------------4-6-|	x4

G-|---|
D-|---|
A-|---|
E-|-6-|	x4
Suggest correction
Creating personal tab
Creating personal tab
You can edit any tab online and save it as your Personal.

You can edit, replace or remove any tab part or add personal notes – all changes will be seen only by you.

Personal tabs can be accessed anytime from any device, even offline.
Learn more »
comments
print report bad tab
3 comments total.
0 reply
Peace n love 10 Jan 21, 2007 07:50 PM

That's perfect. Good job on tabbing.

0 reply
Bert_Hastings 179 Feb 17, 2007 11:12 AM

One note on my tab... You should slide off of the last Bb that you play in the song, that's what Chris does in the song.

0 reply
primuslover92 134 May 28, 2009 08:17 AM

awesome tab but i have a correction on the solo part
the 10 times thing is correct but the solo tab is like this:

G-------------------------
D---------------6h8-8-----
A-------4-6/8-------------
E--4-6--------------------

guest
You may want to rate the tab now too:
select rating
Wanna post a correction for this tab? Suggest correction