Oops, an error
Loading. Please wait.

Apple Tree solo tab

version 1
version 1

Solo

Whole song

Interactive

9,472 views 1 this week
6 commentsread comments
1 2 3 4 5
x 8
add to favorites
×
Save as Personal and add changes to this tab that will be seen only by you. Learn more ›
×
You can save this tab as Personal to edit and correct it or add notes. All changes will be seen only by you. Learn more »
launch autoscroll
font size
0
reset
how to read this tab
guitar tuner
edit
Autoscroll
slow
fast
+/-
esc
set tempo
stop
Author
Difficulty
This song is pretty straightforward except for the solo at the end which
sounds a lot more confusing than it actually is, which is a result of the effects used. 
can't seem to find a decent tab of it so im doing it myself. Listen to the song to get 
rhythm

h-hammer on
p-pull off
/-slide
b-bend
r-release bend (don't play the note listed after the release, it just shows the note you 
releasing back to)
~-vibrato

 Starts off like this
e------------------------------------|
B------------------------------------|
G------------------------------------|
D--6--8----------------6-8-8---------| x4
A--6--8---------4-6/8----------------|
E--4--6-----4h6----------------------|

|------------------------------------------------------------|
|--------------------------------------------------9-11-11---|
|----6/8b9----9r8p6-----6-------------------6h8/10-----------|
|------------------8-8----8-8(let ring)-6h8------------------| x2
|------------------------------------------------------------|
|------------------------------------------------------------|

|---11b13-----13r11p9--------999-----------------------------|
|----------------------11-11-----11--11(let ring)------------|
|------------------------------------------------------------|
|------------------------------------------------------------|
|------------------------------------------------------------|
|------------------------------------------------------------|

|---11b13-----13r11p9--------9-------------------------------|
|----------------------11-11---11--11-------------9-11-11----|
|-----------------------------------------6h8/10-------------|
|-------------------------------------6h8--------------------|
|------------------------------------------------------------|
|------------------------------------------------------------|

 Now for the more difficult part
|--18-16-----------------------------------------------------|
|--------18-16b17r16-16-14-16-14----14-16-16-16b18r16p14-----|
|--------------------------------15----------------------15--|
|------------------------------------------------------------|
|------------------------------------------------------------|
|------------------------------------------------------------|

 ---------------------------|
 16-15b1616r15p13-----------|
 ----------------14---------|
 ---------------------------|
 ---------------------------|
 ---------------------------|

|-----18b19r18-18-16----16-----------------------------------|
|--------------------18----18-16-18-14h16p14-14--------------|
|------------------------------------------------------------|
|------------------------------------------------------------|
|------------------------------------------------------------|
|------------------------------------------------------------|

 --------------------------------|
 -16-16b18---r16p14--------------|
 -------------------15-----------|
 --------------------------------|
 --------------------------------|
 --------------------------------|

|-------16-18b19r18-16----16---------------------------------|
|-16-18----------------18----18-16-14-16-------16~-------16~-|
|------------------------------------------15~------15~------|
|------------------------------------------------------------|
|------------------------------------------------------------|
|------------------------------------------------------------|

 That's the end of the solo and the song finishes with this:
|---------------------|
|---------------------|
|----7------7------7--|
|----8------8------8--|
|----8------8------8--|
|----6------6------6--|

 Thanks and feel free to leave comments or email me on
 pinkfloyd_27@hotmail.com

 Cheers :D

            
            
Suggest correction
Creating personal tab
Creating personal tab
You can edit any tab online and save it as your Personal.

You can edit, replace or remove any tab part or add personal notes – all changes will be seen only by you.

Personal tabs can be accessed anytime from any device, even offline.
Learn more »
comments
print report bad tab
6 comments total. Showing first comments.
0 reply
neil_cabatingan 180 Jul 07, 2006 06:57 PM

thanks for posting the solo. good tab

0 reply
turbonegro 183 Jul 19, 2006 07:53 AM

if there was time stamps for each riff that would make it soooo much easier. but its still really good

0 reply
punkextremest 47 Oct 11, 2006 12:12 PM

im impressed, keep it up.

guest
You may want to rate the tab now too:
select rating
Wanna post a correction for this tab? Suggest correction