Oops, an error
Loading. Please wait.

Apple Tree tab

version 2
version 2

Whole song

Interactive

3,646 views 1 this week
6 commentsread comments
1 2 3 4 5
x 8
add to favorites
×
Save as Personal and add changes to this tab that will be seen only by you. Learn more ›
×
You can save this tab as Personal to edit and correct it or add notes. All changes will be seen only by you. Learn more »
launch autoscroll
font size
0
reset
how to read this tab
guitar tuner
edit
Autoscroll
slow
fast
+/-
esc
set tempo
stop
Author
Difficulty
Wolfmother - Apple Tree 


Standard Tuning:E,A,D,G,B,e
               




[00:00,00:07]


e|xxxxxxxxxxxxxxxxxxxxxxxxxxxxxx |xxxxxxxxxxxxxxxxxxxxxxxxxxxxxxxxxxxxxxxx |
B|xxxxxxxxxxxxxxxxxxxxxxxxxxxxxx |xxxxxxxxxxxxxxxxxxxxxxxxxxxxxxxxxxxxxxxx | 
G|----------------------------(7)|--------------------------------------(7)|  x2
D|-----------------------------8 |---------------------------------------8 |  
A|-----------------------------8 |---------------------------------------8 | 
E|-----------------------------6 |---------------------------------------6 |
 |Dear Sir, can you remember me, | I'm the one who picked the apple tree.


[00:07,00:15]

  
(note: bend down last chord as mentioned '^')
e|xxxxxxxxxxxxxx|  
B|xxxxxxxxxxxxxx|  
G|xxxxxxxxxxxxxx| x4
D|8-8-8-8-8-8--8|  
A|8-8-8-8-8-8--6|  
E|6-6-6-6-6-6--x|  
               ^

[00:15,00:23]


e| xxxxxxxxxxxxxxxxxxxxxxxxxxxxxx |xxxxxxxxxxxxxxxxxxxxxxxxxxxxxxxxxxxxxxxx |
B| xxxxxxxxxxxxxxxxxxxxxxxxxxxxxx |xxxxxxxxxxxxxxxxxxxxxxxxxxxxxxxxxxxxxxxx | 
G|(7)--------------------------(7)|--------------------------------------(7)|  
D| 8----------------------------8 |---------------------------------------8 |  
A| 8----------------------------8 |---------------------------------------8 | 
E| 6----------------------------6 |---------------------------------------6 |
 |Dear Sir, can you remember me,  | I'm the one who picked the apple tree.


e|xxxxxxxxxxxxxxxxxxxxxxxxxxxxxx |xxxxxxxxxxxxxxxxxxxxxxxxxxxxxxxxxxxxxxxx |
B|xxxxxxxxxxxxxxxxxxxxxxxxxxxxxx |xxxxxxxxxxxxxxxxxxxxxxxxxxxxxxxxxxxxxxxx | 
G|xxxxxxxxxxxxxxxxxxxxxxxxxxxx(7)|xxxxxxxxxxxxxxxxxxxxxxxxxxxxxxxxxxxxxx(7)|  
D|-----------------------------8 |---------------------------------------8 |  
A|-----------------------------8 |---------------------------------------8 | 
E|-----------------------------6 |---------------------------------------6 |
 |Dear Sir, can you remember me  | I'm the one who picked the apple tree.


[00:23,00:30]


(note: bend down last chord as mentioned '^')
e|xxxxxxxxxxxxxx|  
B|xxxxxxxxxxxxxx|  
G|xxxxxxxxxxxxxx|x4
D|8-8-8-8-8-8--8|  
A|8-8-8-8-8-8--6|  
E|6-6-6-6-6-6--x|  
               ^

[00:30,01:02]


e|x|                   e|xxxx|
B|x|                   B|xxxx|
G|x|                   G|xxxx| x9
D|8|                   D|6--8|
A|8|                   A|6--8|
E|6|   then  E|4--6| also let the same chord ring


[01:02,01:18]


e|-----------------------------------|
B|-----------------------------------|
G|-----------------------------------|
D|11-11-11-11-11-11-11-11-11-11--6--8| x 3 (The third time the last chord is quickly released)
A|11-11-11-11-11-11-11-11-11-11--6--8|     (and first chord is played 10 times, atleast i think :-)
E|9--9--9--9--9--9--9--9--9--9---4--6|


[01:18,01:26]


e|xxxxxxxxxxxxxxxxxxxxxxxxxxxxxx |xxxxxxxxxxxxxxxxxxxxxxxxxxxxxxxxxxxxxxxx |
B|xxxxxxxxxxxxxxxxxxxxxxxxxxxxxx |xxxxxxxxxxxxxxxxxxxxxxxxxxxxxxxxxxxxxxxx | 
G|----------------------------(7)|--------------------------------------(7)|  x2
D|-----------------------------8 |---------------------------------------8 |  
A|-----------------------------8 |---------------------------------------8 | 
E|-----------------------------6 |---------------------------------------6 |
 |Dear Sir, can you remember me, | I'm the one who picked the apple tree.


[01:26,01:34]


(note: bend down last chord as mentioned '^')
e|xxxxxxxxxxxxxx|  
B|xxxxxxxxxxxxxx|  
G|xxxxxxxxxxxxxx|x4
D|8-8-8-8-8-8--8|  
A|8-8-8-8-8-8--6|  
E|6-6-6-6-6-6--x|  
               ^

[01:34,01:41]


e| xxxxxxxxxxxxxxxxxxxxxxxxxxxxxx |xxxxxxxxxxxxxxxxxxxxxxxxxxxxxxxxxxxxxxxx |
B| xxxxxxxxxxxxxxxxxxxxxxxxxxxxxx |xxxxxxxxxxxxxxxxxxxxxxxxxxxxxxxxxxxxxxxx | 
G|(7)--------------------------(7)|--------------------------------------(7)|  
D| 8----------------------------8 |---------------------------------------8 |  
A| 8----------------------------8 |---------------------------------------8 | 
E| 6----------------------------6 |---------------------------------------6 |
 |Dear Sir, can you remember me,  | I'm the one who picked the apple tree.



e|xxxxxxxxxxxxxxxxxxxxxxxxxxxxxx |xxxxxxxxxxxxxxxxxxxxxxxxxxxxxxxxxxxxxxxx |
B|xxxxxxxxxxxxxxxxxxxxxxxxxxxxxx |xxxxxxxxxxxxxxxxxxxxxxxxxxxxxxxxxxxxxxxx | 
G|xxxxxxxxxxxxxxxxxxxxxxxxxxxx(7)|xxxxxxxxxxxxxxxxxxxxxxxxxxxxxxxxxxxxxx(7)|  
D|-----------------------------8 |---------------------------------------8 |  
A|-----------------------------8 |---------------------------------------8 | 
E|-----------------------------6 |---------------------------------------6 |
 |Dear Sir, can you remember me  | I'm the one who picked the apple tree.


[01:41,02:17]


(note: bend down last chord as mentioned '^')
e|xxxxxxxxxxxxxx|  
B|xxxxxxxxxxxxxx|  
G|xxxxxxxxxxxxxx|x4  let last chord tranfer to: e|x| and then continue with e|xxxx|
D|8-8-8-8-8-8--8|                               B|x|                        B|xxxx|
A|8-8-8-8-8-8--6|                               G|x|                        G|xxxx| x9
E|6-6-6-6-6-6--x|                               D|8|                        D|6--8|
               ^                                A|8|                        A|6--8|
                                                E|6|                        E|4--6|
[02:17,02:33]

 
e|-----------------------------------|
B|-----------------------------------|
G|-----------------------------------|
D|11-11-11-11-11-11-11-11-11-11--6--8| x 3 Then Transfer to:  
A|11-11-11-11-11-11-11-11-11-11--6--8|     
E|9--9--9--9--9--9--9--9--9--9---4--6|


[02:33,03,32]


e|-----------------|    |--------------------|
B|-----------------|    |--------------------|
G|-----------------|then|--------------------| x10 (note: after 3th time other guitar comes in with solo)
D|----------6h8-8--|    |6/8------------6h8-8|
A|----4h6/8--------|    |6/8------4/6h8------|
E|4h6--------------|    |4/6--4/6------------|




Email me on : My_black_system@hotmail.com , Jensq !
Suggest correction
Creating personal tab
Creating personal tab
You can edit any tab online and save it as your Personal.

You can edit, replace or remove any tab part or add personal notes – all changes will be seen only by you.

Personal tabs can be accessed anytime from any device, even offline.
Learn more »
comments
print report bad tab
6 comments total. Showing first comments.
0 reply
AjuMetDeParaplu 10 Aug 13, 2006 09:51 AM

geweldig :-D

0 reply
Lasseh 10 Feb 07, 2007 01:09 PM

doesn't sound right at all.. and I didn't understand that tabing :S

0 reply
BranMuffins??? 30 Mar 04, 2007 04:09 PM

Dude where did those muted notes come from? they're not there! i agree with Lasseh i cant read it . . . i geuss I'll tab this song cuz it shouldnt be tabbed wrong for Wolf fans

guest
You may want to rate the tab now too:
select rating
Wanna post a correction for this tab? Suggest correction