Oops, an error
Loading. Please wait.

California Queen Tab

21,194 views 12 this week
1 commentread comment
1 2 3 4 5
excellent!
x 6
add to favorites
launch autoscroll
font size
0
reset
how to read this tab
guitar tuner
Autoscroll
slow
fast
+/-
esc
set tempo
stop
Help us to improve Ultimate-Guitar.com Take our survey!
×
Author
Difficulty
intermediate
Transcribed by Danleary

Hello Wolfmother.net!

Standard Tuning

Key

 ^  : Bend [1/4, 1/2, 1, etc.]
 v  : Bring bend back down
 /  : Slide into
 \  : Slide out of
 h  : Hammer on
 p  : Pull Off
(-) : Do not pick note
 =  : Vibrato
 X  : Mute
_____________________________________________________________________________

Intro/Chorus

Guitar I

With wah-wah pedal.
                               
0:00
                              
|-----------------------------------|
|-----------------------------------|
|-----------------------------------|
|-----------------------------------|
|-----------------------------------|
|--5h7-7-5h7-7-5h7-7-5h7-7-5h7-7-7--|
                               Repeat

0:20
   
|---------------------------------------|
|---------------------------------------|
|---------------------------------------|
|--7h9-9--7h9-9--7h9-9--7h9-9--7h9-9-9--|
|--7h9-9--7h9-9--7h9-9--7h9-9--7h9-9-9--|
|--7---7--7---7--7---7--7---7--7---7-7--|
                                   Repeat
                                
Guitar II

0:10 

[Same as Guitar I at 0:20]                              

2:00                                                   2:09

|--7===========--7===========--7===========--7===========--|
|----------------------------------------------------------|
|----------------------------------------------------------|
|----------------------------------------------------------|
|----------------------------------------------------------|
|----------------------------------------------------------|
_____________________________________________________________________________

Bridge

Appears again at 1:01, 2:10

With wah-wah pedal.

0:41                          0:44                    0:46
   D
|---------------------------------------------------------|
|---------------------------------------------------------|
|---------------------------------------------------------|
|--12---12---12---12---12-12---12---12---12--12-12---12---|
|--12---12---12---12---12-12---12---12---12--12-12---12---|
|--10---10---10---10---10-10---10---10---10--10-10---10---|
_____________________________________________________________________________

Verse

Appears again at 2:30
                                      Repeat 4X
1:12                                      1:19
   B         D     B    A 
|---------------------------------------------|
|---------------------------------------------|
|---------------------------------------------|
|--9----9----12----9----7----7----7--7--7--7--|
|--9----9----12----9----7----7----7--7--7--7--|
|--7----7----10----7----5----5----5--5--5--5--|

1:42                                                  1:50
   B         D                E                       B
|---------------------------------------------------------|
|---------------------------------------------------------|
|---------------------------------------------------------|
|--9----9----12------12-------14----14----14----14----9\--|
|--9----9----12------12-------14----14----14----14----9\--|
|--7----7----10--10--10--10---12----12----12----12----7\--|
_____________________________________________________________________________

Bridge II

2:20                          2:23                   2:25
   D                           Db            C
|-------------------------------------------------------|
|-------------------------------------------------------|
|-------------------------------------------------------|
|--12---12---12---12---12-12---11---11---11--10-10--10--|
|--12---12---12---12---12-12---11---11---11--10-10--10--|
|--10---10---10---10---10-10---9----9----9---8--8---8---|
_____________________________________________________________________________

Solo

Guitar I is doubled by guitar II.

3:19

|---------------------------------|
|---------------------------------|
|----------7-----------------9-7--|
|------7-9---9-7-9------7-9-------|
|--7-9--------------7-9-----------|
|---------------------------------|
                          Repeat 4X

3:27

|-10-12-10----10------------------------------------------------------------|
|----------12----12-10-12-10----10------------------------------------------|
|----------------------------11----11-9-11-9\7-9-7---7----------------------|
|--------------------------------------------------9---9-7-9-7-----7--------|
|--------------------------------------------------------------9------9--5--|
|---------------------------------------------------------------------------|

3:32

   [1/4]
|---------------------------------------------------------------------------|
|-----------------------10--------------------------------------------------|
|-9-9^---7-7-7-7-9---11----11-11-9--11--9-11---9-7-7-9-9^v(9)-9-9-9-9-9-9-9-|
|---------------------------------------------------------------------------|
|---------------------------------------------------------------------------|
|---------------------------------------------------------------------------|

3:39

|---------------|
|---------------|
|--7-7-7-7-7-7--|
|---------------|
|---------------|
|---------------|
Suggest correction
comments
print report bad tab
1 comment total.
0 reply
metallicaM.O.P. 40 wrote on October 28 2009, 07:25 pm

nice job!

guest
You may want to rate the tab now too:
select rating
Please do not post tabs as comments. Select "correction" instead!