Oops, an error
Loading. Please wait.

City Lights tab

1,132 views 12 this week
no commentswrite comment
1 2 3 4 5
x 3
add to favorites
×
Save as Personal and add changes to this tab that will be seen only by you. Learn more ›
×
You can save this tab as Personal to edit and correct it or add notes. All changes will be seen only by you. Learn more »
launch autoscroll
font size
0
reset
how to read this tab
guitar tuner
edit
Autoscroll
slow
fast
+/-
esc
set tempo
stop
Author
Tabbed by: Vrusciante
E-mail: vrusciante@yahoo.com.br 

This is CITY LIGHTS a new song from their upcoming album VICTORIOUS
you can hear it in their youtube page

E standard tunning


intro RIFF play like this
|-15^-15-14-12--------------14^-14-12---------------------|
|--------------12h13-12---------------15-12h13-12---------|
|---------------------------------------------------------|
|---------------------------------------------------------|
|---------------------------------------------------------|
|---------------------------------------------------------|

the last repetition you add that note at the end
|-15^-15-14-12----------------14^-14-12--------------------------|
|--------------12h13-12-----------------15--12h13-12---15====----|
|----------------------------------------------------------------|
|----------------------------------------------------------------|
|----------------------------------------------------------------|
|----------------------------------------------------------------|

______________________________________________________________________

VERSE
|-----------------------------------------------------------|
|-----------------------------------------------------------|
|-----------------------------------------------------------|
|-----------------------------------------------------------|
|-12-12---12-12---10-10--10-10---9-9--9-9--x-10--12--12-----|
|-10-10---10-10---8--8---8--8----7-7--7-7--x-8---10--10-----|

______________________________________________________________________

CHORUS
  let ring
|-----------------------------------------------|
|-----------------------------------------------|
|-----------------------------------------------|
|-12==12===15==15===10==10===12===12====--------|
|-12==12===15==15===10==10===12===12====--------|
|-10==10===13==13===8===8====10===10====--------|

Then there is this lick while the verse plays in the back
     H stands for harmonic
             [0.5]bend
|----------------------------|
|----12H-x-------------------|
|----------11==^^^===--------|
|----------------------------|
|----------------------------|
|----------------------------|

______________________________________________________________________

SOLO
(repeat x2)[
|---------------------------------------------------------------------|
|---------------------------------------------------------------------|
|---------------------------------------------------------------------|
|----------------------12-------------------12------------------------|
|-------------12-13-15------------12-13-15------10-12-10--------------|
|---13==--15----------------13-15-------------------------------------|

|----------------------------------------------------------------------|
|----------------------------------------------------------------------|
|----------------------------------------------------------------------|
|-------------------12-13----------------12-13-------------------------|
|----------12-13-15------------12-13-15---------10-12-10---------------|
|---15==--------------------15-----------------------------------------|
]

Then
|----------------------------------------------------------------------------------|
|----------------------------------------------------------------------------------|
|----------------------------------------------------------------------------------|
|-12h13-15====13h15p13===12h13p12===10h12h13--12h13h15===13h15-17====--------------|
|----------------------------------------------------------------------------------|
|----------------------------------------------------------------------------------|


|----------------------------------------------------------------------------------------------|
|----------------------------------------------------------------------------------------------|
|--14-14====12h14h15=====17^----15h17-15-14h15-14===-------------------------------------------|
|-----------------------------------------------------17===\15-15-15====15---------------------|
|----------------------------------------------------------------------------------------------|
|----------------------------------------------------------------------------------------------|

______________________________________________________________________

For the rest of the song repeat the verse, chorus and the intro riff
then at the end there is this last note
|-----------|
|-----------|
|-----------|
|-----------|
|-12--------|
|-10--------|



Suggest correction
Creating personal tab
Creating personal tab
You can edit any tab online and save it as your Personal.

You can edit, replace or remove any tab part or add personal notes – all changes will be seen only by you.

Personal tabs can be accessed anytime from any device, even offline.
Learn more »
Give kudos to tab author, rate the tab!
1 2 3 4 5
comments
print report bad tab
guest
You may want to rate the tab now too:
select rating
Wanna post a correction for this tab? Suggest correction