Oops, an error
Loading. Please wait.

Colossal bass

version 2
version 2

Whole song

Interactive

963 views 1 this week
no commentswrite comment
1 2 3 4 5
3 more votes to show rating
add to favorites
×
Save as Personal and add changes to this tab that will be seen only by you. Learn more ›
×
You can save this tab as Personal to edit and correct it or add notes. All changes will be seen only by you. Learn more »
launch autoscroll
font size
0
reset
guitar tuner
edit
Autoscroll
slow
fast
+/-
esc
set tempo
stop
i used the other tab because is close to, but for my ear, its better this tab, so, 
to the one who made the first tab, just add or correct some things...

tuning: standard

intro: (im not pretty sure about this, so i put it like the one i chek, all the credits to him).

G|-------------------------|
D|-------------------------|
A|-5~---5~---5~---5~--3~---|  x2
E|-------------------------|

verse:

G|-------------------------|
D|-------------------------|
A|-5-5---5-5---5-5---5-5--3|  x5
E|-------------------------|

Pre-Chorus:

G|--------------------------------|
D|--------------------------------|
A|----------------3-3-3-3-3-3-3-3-|
E|5-5-5-5-5-5-5-5-----------------|

Chorus:

G|---------------------|
D|---------------------|
A|5~---5~---5~---5~--3~| x1
E|---------------------|

Pre-Verse:

G|--------------------------------|
D|--------------------------------|
A|----------------3-3-3-3-3-3-3-3-|
E|5-5-5-5-5-5-5-5-----------------|

Verse:

G|-------------------------|
D|-------------------------|
A|5-5---5-5---5-5---5-5--3-|  x5
E|-------------------------|

Pre-Chorus:

G|--------------------------------|
D|--------------------------------|
A|----------------3-3-3-3-3-3-3-3-|
E|5-5-5-5-5-5-5-5-----------------|

Breakdown:

G|-------------------|
D|---6-5-------------|
A|5-------4-3--6-5--3|  x5
E|-------------------|

Pre-Verse:

G|------------------------|
D|------------------------|
A|-----------------------3|
E|5-5---5-5---5-5---5-5---|

Verse:

G|------------------------|
D|------------------------|
A|5-5---5-5---5-5---5-5--3| x4
E|------------------------|

Pre-Chorus:

G|--------------------------------|
D|--------------------------------|
A|----------------3-3-3-3-3-3-3-3-|
E|5-5-5-5-5-5-5-5-----------------|

Chorus:

G|---------------------------------------------------------|
D|---------------------------------------------------------|
A|-5~---5~---5~---5~--3~-------------------3-3-3-3-3-3-3-3-|
E|-------------------------5-5-5-5-5-5-5-5-----------------|

Breakdown:

G|-------------------|
D|---6-5-------------|
A|5-------4-3--6-5--3| x5
E|-------------------|


Second part of song:(this changes)

G|----------------------|
D|----------------------|
A|-(guitar fill)--------|
E|----------------3-4-5-|

G|---------------------------------------------------------------------------| x3
D|---------------------------------------------------------------------------|
A|3/5-5-555-3/5-5-555-3/5-5-555--/8-8-8-3/5-5-555-3/5-5-555-3/5-5-555--------|
E|--------------------------------------------------------------------3-4-5--|

G|---------------------|
D|---------------------|
A|-8-8-8-7-7-7-6-6-6-5~|
E|---------------------| x4


Outro:
G|-----------------|
D|-----------------|
A|-8~--7~--6~--5~--|
E|-----------------| x4

comments...mobyelse@hot..
Suggest correction
Creating personal tab
Creating personal tab
You can edit any tab online and save it as your Personal.

You can edit, replace or remove any tab part or add personal notes – all changes will be seen only by you.

Personal tabs can be accessed anytime from any device, even offline.
Learn more »
Give kudos to tab author, rate the tab!
1 2 3 4 5
comments
print report bad tab
guest
Wanna post a correction for this tab? Suggest correction