Oops, an error
Loading. Please wait.

Colossal tab

version 2
version 2

Whole song

Interactive

836 views 1 this week
1 commentread comment
1 2 3 4 5
1 last vote to show rating
add to favorites
×
Save as Personal and add changes to this tab that will be seen only by you. Learn more ›
×
You can save this tab as Personal to edit and correct it or add notes. All changes will be seen only by you. Learn more »
launch autoscroll
font size
0
reset
how to read this tab
guitar tuner
edit
Autoscroll
slow
fast
+/-
esc
set tempo
stop
Author
Difficulty
-----------------------------------------------------------------------------
                             COLOSSAL  - Wolfmother
-----------------------------------------------------------------------------
Tabbed by: Chapman Li
Email: chapman_li@hotmail.com

Wow, what a great great song and start to this album - kinda reminds me of
Tool when they opened with Stinkfist on Aenema - both very powerful tracks &
a little similar in the riffs

Pretty easy song to play - saw the other versions after I figured the song out and I 
this one is a slight improvement - and it's better to play on dropped-D too.

My 1st tab - if you like then please rate or e-mail me w/ any corrections etc

Tuning: dropped D

Intro (X4)

e|-----------------------------------------------------------------------------|
B|-----------------------------------------------------------------------------|
G|-----------------------------------------------------------------------------|
D|---------------10------------12----------------------------------------------|
A|--------10h12---------10h12--------------------------------------------------|
D|---0-0------------0-0--------------------------------------------------------|


Verse (0:18)

Play downstrokes throughout apart from the last bit - mute downstroke then upstroke
with C5 chord

e|-----------------------------------------------------------------------------|
B|-----------------------------------------------------------------------------|
G|-----------------------------------------------------------------------------|
D|-----12-12---12-12---12-12---12-12x10----------------------------------------|
A|-----12-12---12-12---12-12---12-12x10----------------------------------------|
D|-----12-12---12-12---12-12---12-12x10----------------------------------------|

Chorus (0:47)

Downstrokes on A5 then Down/Up on C5

e|-----------------------------------------------------------------------------|
B|-----------------------------------------------------------------------------|
G|-----------------------------------------------------------------------------|
D|----7-7-7-7-7-7-7-7-7-/-10-10-10-10-10-10-10---------------------------------|
A|----7-7-7-7-7-7-7-7-7-/-10-10-10-10-10-10-10---------------------------------|
D|----7-7-7-7-7-7-7-7-7-/-10-10-10-10-10-10-10---------------------------------|

e|----------------------------------------------------------------------------|
B|----------------------------------------------------------------------------|
G|----------------------------------------------------------------------------|
D|--------------10------------12----------------------------------------------|
A|--------10h12---------10h12-------------------------------------------------|
D|----0-0-----------0-0-------------------------------------------------------|


...back to verse, then repeat Chorus...

Break (1:43)


e|-----------------------------------------------------------------------------|
B|-----------------------------------------------------------------------------|
G|-----------------------------------------------------------------------------|
D|-----------------------------------------------------------------------------|
A|-----------------------------------------------------------------------------|
D|--0-0---6-5---11-10---13-12--------------------------------------------------|

e|--------------------------------------------------------------------------|
B|--------------------------------------------------------------------------|
G|--------------------------------------------------------------------------|
D|-10-12---6-5---11-10---13-12----------------------------------------------|
A|-10-12---6-5---11-10---13-12----------------------------------------------|
D|-10-12---6-5---11-10---13-12----------------------------------------------|


...back to Verse, then repeat Chorus...then repeat Break

Outro (3:31)


e|--------------------------------------------------------------------------|
B|--------------------------------------------------------------------------|
G|--------------------------------------------------------------------------|
D|--------------------------------------------------------------------------|
A|--------------------------------------------------------------------------|
D|-0h12~12~12~12~12--0h12~12~12~12~12--0h12~12~12~12~12--15-15-15-----------|

e|--------------------------------------------------------------------------|
B|--------------------------------------------------------------------------|
G|--------------------------------------------------------------------------|
D|--------------------------------------------------------------------------|
A|--------------------------------------------------------------------------|
D|-0h12~12~12~12~12--0h12~12~12~12~12--0h12~12~12~12~12--5-6-7--------------|

e|--------------------------------------------------------------------------|
B|--------------------------------------------------------------------------|
G|--------------------------------------------------------------------------|
D|--------------------------------------------------------------------------|
A|-15-15-15--14-14-14--13-13-13--12-----------------------------------------|
D|-15-15-15--14-14-14--13-13-13--12-----------------------------------------|


e|--------------------------------------------------------------------------|
B|--------------------------------------------------------------------------|
G|--------------------------------------------------------------------------|
D|--------------------------------------------------------------------------|
A|-15---14---13---12--------------------------------------------------------|
D|-15---14---13---12--------------------------------------------------------|

end on D

| /  slide up
|   slide down
| h  hammer-on
| p  pull-off
| ~  vibrato
| +  harmonic
| x  Mute note
=============================================================================

            
            
Suggest correction
Creating personal tab
Creating personal tab
You can edit any tab online and save it as your Personal.

You can edit, replace or remove any tab part or add personal notes – all changes will be seen only by you.

Personal tabs can be accessed anytime from any device, even offline.
Learn more »
Give kudos to tab author, rate the tab!
1 2 3 4 5
comments
print report bad tab
1 comment total.
0 reply
Supadude 10 Oct 31, 2006 10:51 AM

Not very good...but still kinda (for a first tab)

guest
You may want to rate the tab now too:
select rating
Wanna post a correction for this tab? Suggest correction