Oops, an error
Loading. Please wait.

Colossal Bass Tab

version 3
version 3

Whole song

Interactive

601 views 1 this week
no commentswrite comment
1 2 3 4 5
please rate
add to favorites
launch autoscroll
font size
0
reset
guitar tuner
Autoscroll
slow
fast
+/-
esc
set tempo
stop
Help us to improve Ultimate-Guitar.com Take our survey!
×
Author
Difficulty
Tuning
novice
D A D G B E
G---------------------| x1
D---------------------|
A---------------------| the kinda feedback you here
D-0~------------------|

G-------------------------| x2
D-------------------------|
A----5-----5-----5--5--3--|
D-0-----0-----0-----------|

G--------------------------------| x4
D--------------------------------|
A--5-5----5-5----5-5----5-5--3---|
D--------------------------------|

G-------------------------------------------| x1
D-------------------------------------------|
A-------------------------------------------|
D--7-7-7-7-7-7-7-7-10-10-10-10-10-10-10-10--|

G-------------------------| x1
D-------------------------|
A----5-----5-----5--5--3--|
D-0-----0-----0-----------|

G-------------------------------------------| x1
D-------------------------------------------|
A-------------------------------------------|
D--7-7-7-7-7-7-7-7-10-10-10-10-10-10-10-10--|

G--------------------------------| x4
D--------------------------------|
A--5-5----5-5----5-5----5-5--3---|
D--------------------------------|

G-------------------------------------------| x1
D-------------------------------------------|
A-------------------------------------------|
D--7-7-7-7-7-7-7-7-10-10-10-10-10-10-10-10--|

G-----------------------------------------| x5
D-----------------------------------------|
A-----------------------------------------|
D--12------6-5------11-10------1-0-----10-| (do not play 10 last time)

G--------------------------------| x4
D--------------------------------|
A--5-5----5-5----5-5----5-5--3---|
D--------------------------------|

G-------------------------------------------| x1
D-------------------------------------------|
A-------------------------------------------|
D--7-7-7-7-7-7-7-7-10-10-10-10-10-10-10-10--|

G-------------------------| x1
D-------------------------|
A----5-----5-----5--5--3--|
D-0-----0-----0-----------|

G-------------------------------------------| x1
D-------------------------------------------|
A-------------------------------------------|
D--7-7-7-7-7-7-7-7-10-10-10-10-10-10-10-10--|


G-----------------------------------------| x5
D-----------------------------------------|
A-----------------------------------------|
D--12------6-5------11-10------1-0-----10-| (do not play 10 last time)


G---------------------| x1
D----Rest-------------|
A---Guitar------------|
D----Only------5-6-7--|

G---------------------------------------------  \
D---------------------------------------3-3-3-   \
A--3h5-5-5-5-5-3h5-5-5-5-5-3h5-5-5-5-5--------    \
D---------------------------------------------     \
                                                    \ One Part x3
                                                    /
G---------------------------------------------     /
D---------------------------------------------    /
A--3h5-5-5-5-5-3h5-5-5-5-5-3h5-5-5-5-5--------   /
D---------------------------------------5-6-7-  /

G------------------------| x4
D------------------------|
A------------------------|
D--3-3-3-2-2-2-1-1-1-0~--|

G------------------------| x4
D------------------------|
A------------------------|
D--3~----2~----1~----0~--|
Suggest correction
Give kudos to tab author, rate the tab!
1 2 3 4 5
comments
print report bad tab
guest
You may want to rate the tab now too:
select rating
Please do not post tabs as comments. Select "correction" instead!