Oops, an error
Loading. Please wait.

Dimension tab

version 2
version 2

Whole song

Interactive

85,776 views 75 this week
38 commentsread comments
1 2 3 4 5
x 113
add to favorites
×
Save as Personal and add changes to this tab that will be seen only by you. Learn more ›
×
You can save this tab as Personal to edit and correct it or add notes. All changes will be seen only by you. Learn more »
launch autoscroll
font size
0
reset
how to read this tab
guitar tuner
backing track
0:00
0:00
edit
Autoscroll
slow
fast
+/-
esc
set tempo
stop
Author
ARTIST - Wolfmother
ALBUM - Self Titled
SONG - Dimension

Hey Hey.. this is the new version of Dimension from the new self titled album, its got
a few new bits here and there. Note that when a chord is in brackets like |--(7)--| it
is only partially implied. meaning that its held on from the last bar and not actually
strummed please not this is NOT the version from the EP so here we go..                            


[INTRO] - W/ light fuzz
E|----------------|-----------------|
B|----------------|-----------------|
G|----------------|-----------------|
D|----------------|---------------5-|
A|--7---7---7---7-|-7---7--0h5--7---|
E|--0---0---0---0-|-0---0-----------|

repeat that 4 times before the verse

[Verse]

E|----------------|-----------------|----------------|---------------|
B|----------------|-----------------|----------------|---------------|
G|----------------|-----------------|----------------|---------------|
D|-14-------------|-14-14-14--------|-7-7-7----------|-14-14-14------|
A|-14-------------|-14-14-14--------|-7-7-7----------|-14-14-14------|
E|-12-------------|-12-12-12--------|-5-5-5----------|-12-12-12------|

all the note above are held for 4 bars each, ive just written them out
on one line but the ones below are played as written
E|----------------|-----------------|----------------|---------------|
B|----------------|-----------------|----------------|---------------|
G|----------------|-----------------|----------------|---------------|
D|-9-9-9----------|-(9)-------------|-7~~------------|-(7)\----------|
A|-9-9-9----------|-(9)-------------|-7~~------------|-(7)\----------|
E|-7-7-7----------|-(7)-------------|-5~~------------|-(5)\----------|


[CHORUS] w/heavy fuzz
E|-----------------------------------|-----------------------------------|
B|-----------------------------------|-----------------------------------|
G|----------------7-7-9--7-----------|----------------7-7-9--7-----------|
D|------5-6-7-8-9----------9-8-7-6-5-|------5-6-7-8-9----------9-8-7-6-5-|
A|-5-7-------------------------------|-5-7-------------------------------|
E|-----------------------------------|-----------------------------------|

E|----------------|-----------------|----------------|----------------|
B|----------------|-----------------|----------------|----------------|
G|----------------|-----------------|----------------|----------------|
D|-14-------------|-8-7-------------|-12-14----------|-8-7------------|
A|-14-------------|-8-7-------------|-12-14----------|-8-7------------|
E|-12-------------|-6-5-------------|-10-12----------|-6-5------------|
   Purple hazes in the sky!

Lets Call this Part RIFF ONE

RIFF ONE
E|----------------|-----------------|----------------|----------------|
B|----------------|-----------------|----------------|----------------|
G|----------------|-----------------|----------------|----------------|
D|--------------5-|---------------5-|--------------5-|--------------5-|
A|----7---0-5h7---|----7---0-5h7----|----7---0-5h7---|----7---0-5h7---|
E|-0--------------|-0---------------|----------------|----------------|

now back to..


[Verse]

E|----------------|-----------------|----------------|---------------|
B|----------------|-----------------|----------------|---------------|
G|----------------|-----------------|----------------|---------------|
D|-14-------------|-14-14-14--------|-7-7-7----------|-14-14-14------|
A|-14-------------|-14-14-14--------|-7-7-7----------|-14-14-14------|
E|-12-------------|-12-12-12--------|-5-5-5----------|-12-12-12------|

all the note above are held for 4 bars each, the ones below are played as written
E|----------------|-----------------|----------------|---------------|
B|----------------|-----------------|----------------|---------------|
G|----------------|-----------------|----------------|---------------|
D|-9-9-9----------|-(9)-------------|-7~~------------|-(7)\----------|
A|-9-9-9----------|-(9)-------------|-7~~------------|-(7)\----------|
E|-7-7-7----------|-(7)-------------|-5~~------------|-(5)\----------|

then play this chorus with a key change in the first part...


[CHORUS] w/heavy fuzz
E|-----------------------------------|------------------------------------|
B|-----------------------------------|-----------------8-8-10-8-----------|
G|----------------7-7-9--7-----------|------5-6-7-8-9-----------9-8-7-6-5-|
D|------5-6-7-8-9----------9-8-7-6-5-|-5-7--------------------------------|
A|-5-7-------------------------------|------------------------------------|
E|-----------------------------------|------------------------------------|

E|----------------|-----------------|----------------|----------------|
B|----------------|-----------------|----------------|----------------|
G|----------------|-----------------|----------------|----------------|
D|-14-------------|-8-7-------------|-12-14----------|-8-7------------|
A|-14-------------|-8-7-------------|-12-14----------|-8-7------------|
E|-12-------------|-6-5-------------|-10-12----------|-6-5------------|
   Purple hazes in the sky!

E|----------------|----------------|----------------|---------------|
B|----------------|----------------|----------------|---------------|
G|-12--12--12--12-|-12--12--12--12-|-14--14--14--14-|-14~~~---------|
D|-12--12--12--12-|-12--12--12--12-|-14--14--14--14-|-14~~~---------|
A|-10--10--10--10-|-10--10--10--10-|-12--12--12--12-|-12~~~---------|
E|----------------|----------------|----------------|---------------|


[LAST VERSE]
The first 2 lines of last verse have no guitar, just a ring out from
the previous riff which is the one above
the vocals goes like this

"i got lost in the desert baby"
"i saw temples made out of paper" oh yeah!

E|-------------|-------------|-------------|-------------|
B|-------------|-------------|-------------|-------------|
G|-------------|-------------|-------------|-------------|
D|--7--7--7--7-|--7--7--7--7-|--7--7--7--7-|--7--7--7--7-|
A|--7--7--7--7-|--7--7--7--7-|--7--7--7--7-|--7--7--7--7-|
E|--5--5--5--5-|--5--5--5--5-|--5--5--5--5-|--5--5--5--5-|
        then i something balh blah....

E|----------------|-----------------|----------------|----------------|
B|----------------|-----------------|----------------|----------------|
G|----------------|-----------------|----------------|----------------|
D|--------------5-|---------------5-|--------------5-|--------------5-|
A|----7---0-5h7---|----7---0-5h7----|----7---0-5h7---|----7---0-5h7---|
E|-0--------------|-0---------------|----------------|----------------|
        something dreams etc etc..

E|-------------|-------------|-------------|-------------|
B|-------------|-------------|-------------|-------------|
G|-------------|-------------|-------------|-------------|
D|--9--9--9--9-|--9--9--9--9-|--7--7--7--7-|--7\---------|
A|--9--9--9--9-|--9--9--9--9-|--7--7--7--7-|--7\---------|
E|--7--7--7--7-|--7--7--7--7-|--5--5--5--5-|--5\---------|
        then i let go of everything

another riff variation.... u can use a harmonist effect or just play it
like ive written it
E|-----------------------------------|-----------------------------------|
B|-----------------------------------|----------------7-7-9--7-----------|
G|----------------7-7-9--7-----------|------4-5-6-7-8----------8-7-6-5-4-|
D|------5-6-7-8-9----------9-8-7-6-5-|-4-6-------------------------------|
A|-5-7-------------------------------|-----------------------------------|
E|-----------------------------------|-----------------------------------|

back to main riff and ending
MAIN RIFF
E|----------------|-----------------|
B|----------------|-----------------|
G|----------------|-----------------|
D|----------------|---------------5-| x4
A|--7---7---7---7-|-7---7--0h5--7---|
E|--0---0---0---0-|-0---0-----------|

End on E.

thats it, good version of the song with some sweet play on riffs all
over the place. please comment/Rate



************************************

| (n)  Ghost note
| h    Hammer-on
| \    Slide down
| ~    Vibrato

************************************

            
            
Suggest correction
Creating personal tab
Creating personal tab
You can edit any tab online and save it as your Personal.

You can edit, replace or remove any tab part or add personal notes – all changes will be seen only by you.

Personal tabs can be accessed anytime from any device, even offline.
Learn more »
comments
print report bad tab
38 comments total. Showing first comments.
0 reply
hunter_s 10 Apr 27, 2006 12:26 AM

sounds good to me

nice job 5 stars

+1 reply
Hangar_18 616 May 01, 2006 07:58 PM

I like these guys, they remind me of Black Sabbath with the vocals of Led Zepp.
(even though they dont compare to them)

0 reply
RATicuZZ 10 May 03, 2006 12:24 PM

ace tab

guest
You may want to rate the tab now too:
select rating
Wanna post a correction for this tab? Suggest correction