Oops, an error
Loading. Please wait.

Dimension bass

version 6
version 6
5,129 views 12 this week
no commentswrite comment
1 2 3 4 5
2 more votes to show rating
add to favorites
×
Save as Personal and add changes to this tab that will be seen only by you. Learn more ›
×
You can save this tab as Personal to edit and correct it or add notes. All changes will be seen only by you. Learn more »
launch autoscroll
font size
0
reset
guitar tuner
backing track
0:00
0:00
edit
Autoscroll
slow
fast
+/-
esc
set tempo
stop
Author
Difficulty
~ means hold the note.. and maybe waver it a bit..
i didnt write how many times to play each bit or how many repeats or whatever for 
everybit but its easy to figure out
all the parts are there and stuff.
x

Intro/verse

G|---------------------| G|----------9-7-----------|
D|-------------------5-| D|--------------9-8-7-5---|
A|-7-7-7-7-7-7-0-5-7---| A|-7-7-7-7--------------7-|
E|---------------------| E|------------------------|

During the verse the bass changes at some points to:

G|-------------------5-| G|---------9-7------------|
D|-7-7-7-7-7-7-0-5-7---| D|-7-7-7-7------9-8-7-5---|
A|---------------------| A|----------------------7-|
E|---------------------| E|------------------------|

Pre chrous:

And then i let go of everything..

G|------------|
D|-9~-------7~|
A|------------|
E|------------|

First Chorus:

G|---------------7-7-9-7-------------|
D|-----5-6-7-8-9---------9-8-7-6-5---|
A|-5-7------------------------------7| x2
E|-----------------------------------|

     1    2
G|-----|-|--------------|
D|-----|-|--------------|
A|-----|-|--------------| Repeat 2
E|--12~|-|-6-5~--10-12~-|

Interlude:

G|------------|    G|-9-7----------|
D|-----------5|    D|-----9-8-7-5--|
A|---7-0-5-7--| x3 A|-------------7| 
E|-0----------|    E|--------------|

Repeat verse...
Second chrous:

G|---------------7-7-9-7-------------|
D|-----5-6-7-8-9---------9-8-7-6-5---|
A|-5-7------------------------------7|
E|-----------------------------------|

G|-----5-6-7-8-9-12-12-14-12-9-8-7-6-5--|
D|-5-7---------------------------------7|
A|--------------------------------------|
E|--------------------------------------|

     1    2
G|-----|-|--------------|
D|-----|-|--------------|
A|-----|-|--------------| Repeat 2
E|--12~|-|-6-5~--10-12~-|

G|----------------------------------------|
D|----------------------------------------|
A|-10-10-10-10-10-10-10-10-12-12-12-12-12~|
E|----------------------------------------|

G|------------| 
D|-----------5|    
A|---7-0-5-7--| 
E|-0----------| 

G|-------------------------9-7-----------|
D|------------------------------9-8-7-5--|
A|--------------------------------------7|
E|-5-5-5-5-5-5-5-5-5-5-5-5---------------|

G|------------| 
D|-----------5|    
A|---7-0-5-7--| 
E|-0----------| 

G|---------------------------|
D|-9-9-9-9-9-9-9-9-7-7-7-7-7-|
A|---------------------------|
E|---------------------------|

Final chorus:

G|---------------7-7-9-7-------------|
D|-----5-6-7-8-9---------9-8-7-6-5---|
A|-5-7------------------------------7|
E|-----------------------------------|

G|----4-5-6-7-8-11-11-13-11-8-7-6-5-4--|
D|-4-6--------------------------------6|
A|-------------------------------------|
E|-------------------------------------|

Then play the main riff till the end x
Suggest correction
Creating personal tab
Creating personal tab
You can edit any tab online and save it as your Personal.

You can edit, replace or remove any tab part or add personal notes – all changes will be seen only by you.

Personal tabs can be accessed anytime from any device, even offline.
Learn more »
Give kudos to tab author, rate the tab!
1 2 3 4 5
comments
print report bad tab
guest
You may want to rate the tab now too:
select rating
Wanna post a correction for this tab? Suggest correction