Oops, an error
Loading. Please wait.

How Many Times tab

67 views 3 this week
no commentswrite comment
1 2 3 4 5
3 more votes to show rating
add to favorites
×
Save as Personal and add changes to this tab that will be seen only by you. Learn more ›
×
You can save this tab as Personal to edit and correct it or add notes. All changes will be seen only by you. Learn more »
launch autoscroll
font size
0
reset
how to read this tab
guitar tuner
edit
Autoscroll
slow
fast
+/-
esc
set tempo
stop
About this tab version
Main structure of the song, solo is pending. Was this info helpful? Yes No
Title: How Many Times
Artist: Wolfmother
Album: New Crown
Words: Andrew Stockdale
Music: Andrew Stockdale
Tabber: lego_alien
Tempo = 120
Time Signature: 6/8

[Intro]
E|----------------------------------------|----------------------------------------|
B|----------------------------------------|----------------------------------------|
G|-----------14-12----12------------------|--------------------12------------------|
D|-----------------14-------14-12----14---|-----------14-12-------------14---------|
A|----------------------------------------|-----------------14---------------------|
D|----------------------------------------|----------------------------------------|

E|----------------------------------------|----------------------------------------|
B|----------------------------------------|----------------------------------------|
G|-----------14-12----12------------------|--------------------12------------------|
D|-----------------14-------14-12----14---|-----------12----14----------14---------|
A|----------------------------------------|--12----14------------------------------|
D|----------------------------------------|----------------------------------------|

E|----------------------------------------|----------------------------------------|
B|----------------------------------------|----------------------------------------|
G|-----------14-12----12------------------|----------------------------------------|
D|-----------------14-------14-12----14---|-----------14-12----12------------------|
A|----------------------------------------|-----------------14----------14---------|
D|----------------------------------------|----------------------------------------|

E|----------------------------------------|----------------------------------------|
B|----------------------------------------|----------------------------------------|
G|-----------14-12----12------------------|--------------------12------------------|
D|-----------------14-------14-12----14---|-----------12----14----------14---------|
A|----------------------------------------|--12----14------------------------------|
D|----------------------------------------|----------------------------------------|

[Verse 1]
E|----------------------------------------|----------------------------------------|
B|----------------------------------------|----------------------------------------|
G|----------------------------------------|----------------------------------------|
D|----------------------------------------|----------------------------------------|
A|--14----14-14----14-14----14-14----14---|--14----14-14----14-14----14-14----14---|
D|--14----14-14----14-14----14-14----14---|--14----14-14----14-14----14-14----14---|

E|----------------------------------------|----------------|
B|----------------------------------------|----------------|
G|----------------------------------------|----------------|
D|----------------------------------------|--12----14------|
A|--14----14-14----14-14----14-14----14---|--10-12-12-14---|
D|--14----14-14----14-14----14-14----14---|-----12----14---|

E|----------------------------------------|----------------------------------------|
B|----------------------------------------|----------------------------------------|
G|----------------------------------------|----------------------------------------|
D|----------------------------------------|----------------------------------------|
A|--14----14-14----14-14----14-14----14---|--14----14-14----14-14----14-14----14---|
D|--14----14-14----14-14----14-14----14---|--14----14-14----14-14----14-14----14---|

E|----------------------------------------|----------------|
B|----------------------------------------|----------------|
G|----------------------------------------|----------------|
D|----------------------------------------|--12----14------|
A|--14----14-14----14-14----14-14----14---|--10-12-12-14---|
D|--14----14-14----14-14----14-14----14---|-----12----14---|

E|----------------------------------------|----------------------------------------|
B|----------------------------------------|----------------------------------------|
G|----------------------------------------|----------------------------------------|
D|----------------------------------------|----------------------------------------|
A|--10----10-10----10-10----10-10----10---|--10----10-10----10-10----10-10----10---|
D|--10----10-10----10-10----10-10----10---|--10----10-10----10-10----10-10----10---|

E|----------------------------------------|----------------------|
B|----------------------------------------|----------------------|
G|----------------------------------------|----------------------|
D|----------------------------------------|----------------------|
A|--10----10-10----10-10----10-10----10---|--12------------------|
D|--10----10-10----10-10----10-10----10---|--12------------------|

[riff]
E|----------------------------------------|----------------------------------------|
B|----------------------------------------|----------------------------------------|
G|-----------14-12----12------------------|--------------------12------------------|
D|-----------------14-------14-12----14---|-----------14-12-------------14---------|
A|----------------------------------------|-----------------14---------------------|
D|----------------------------------------|----------------------------------------|

E|----------------------------------------|----------------------------------------|
B|----------------------------------------|----------------------------------------|
G|-----------14-12----12------------------|--------------------12------------------|
D|-----------------14-------14-12----14---|-----------12----14----------14---------|
A|----------------------------------------|--12----14------------------------------|
D|----------------------------------------|----------------------------------------|

E|----------------------------------------|----------------------------------------|
B|----------------------------------------|----------------------------------------|
G|-----------14-12----12------------------|----------------------------------------|
D|-----------------14-------14-12----14---|-----------14-12----12------------------|
A|----------------------------------------|-----------------14----------14---------|
D|----------------------------------------|----------------------------------------|

E|----------------------------------------|----------------------------------------|
B|----------------------------------------|----------------------------------------|
G|-----------14-12----12------------------|--------------------12------------------|
D|-----------------14-------14-12----14---|-----------12----14----------14---------|
A|----------------------------------------|--12----14------------------------------|
D|----------------------------------------|----------------------------------------|

[Verse 2]
E|----------------------------------------|----------------------------------------|
B|----------------------------------------|----------------------------------------|
G|----------------------------------------|----------------------------------------|
D|----------------------------------------|----------------------------------------|
A|--14----14-14----14-14----14-14----14---|--14----14-14----14-14----14-14----14---|
D|--14----14-14----14-14----14-14----14---|--14----14-14----14-14----14-14----14---|

E|----------------------------------------|----------------|
B|----------------------------------------|----------------|
G|----------------------------------------|----------------|
D|----------------------------------------|--12----14------|
A|--14----14-14----14-14----14-14----14---|--10-12-12-14---|
D|--14----14-14----14-14----14-14----14---|-----12----14---|

E|----------------------------------------|----------------------------------------|
B|----------------------------------------|----------------------------------------|
G|----------------------------------------|----------------------------------------|
D|----------------------------------------|----------------------------------------|
A|--14----14-14----14-14----14-14----14---|--14----14-14----14-14----14-14----14---|
D|--14----14-14----14-14----14-14----14---|--14----14-14----14-14----14-14----14---|

E|----------------------------------------|----------------|
B|----------------------------------------|----------------|
G|----------------------------------------|----------------|
D|----------------------------------------|--12----14------|
A|--14----14-14----14-14----14-14----14---|--10-12-12-14---|
D|--14----14-14----14-14----14-14----14---|-----12----14---|

E|----------------------------------------|----------------------------------------|
B|----------------------------------------|----------------------------------------|
G|----------------------------------------|----------------------------------------|
D|----------------------------------------|----------------------------------------|
A|--10----10-10----10-10----10-10----10---|--10----10-10----10-10----10-10----10---|
D|--10----10-10----10-10----10-10----10---|--10----10-10----10-10----10-10----10---|

E|----------------------------------------|----------------------|
B|----------------------------------------|----------------------|
G|----------------------------------------|----------------------|
D|----------------------------------------|----------------------|
A|--10----10-10----10-10----10-10----10---|--12------------------|
D|--10----10-10----10-10----10-10----10---|--12------------------|

[Riff]
E|----------------------------------------|----------------------------------------|
B|----------------------------------------|----------------------------------------|
G|-----------14-12----12------------------|--------------------12------------------|
D|-----------------14-------14-12----14---|-----------14-12-------------14---------|
A|----------------------------------------|-----------------14---------------------|
D|----------------------------------------|----------------------------------------|

E|----------------------------------------|----------------------------------------|
B|----------------------------------------|----------------------------------------|
G|-----------14-12----12------------------|--------------------12------------------|
D|-----------------14-------14-12----14---|-----------12----14----------14---------|
A|----------------------------------------|--12----14------------------------------|
D|----------------------------------------|----------------------------------------|

E|----------------------------------------|----------------------------------------|
B|----------------------------------------|----------------------------------------|
G|-----------14-12----12------------------|----------------------------------------|
D|-----------------14-------14-12----14---|-----------14-12----12------------------|
A|----------------------------------------|-----------------14----------14---------|
D|----------------------------------------|----------------------------------------|

E|----------------------------------------|----------------------------------------|
B|----------------------------------------|----------------------------------------|
G|-----------14-12----12------------------|--------------------12------------------|
D|-----------------14-------14-12----14---|-----------12----14----------14---------|
A|----------------------------------------|--12----14------------------------------|
D|----------------------------------------|----------------------------------------|

[Bridge]
E|----------------|----------------|
B|----------------|----------------|
G|----------------|----------------|
D|----------------|----------------|
A|--14-14-14-14---|--14-17-17-14---|
D|--14-14-14-14---|--14-17-17-14---|

E|----------------|----------------|----------------|----------------|
B|----------------|----------------|----------------|----------------|
G|----------------|----------------|----------------|----------------|
D|----------------|----------------|----------------|----------------|
A|--12-12-12-12---|--12-17-17-14---|--14-14-14-14---|--14-17-17-14---|
D|--12-12-12-12---|--12-17-17-14---|--14-14-14-14---|--14-17-17-14---|

E|----------------|----------------|----------------|----------------|
B|----------------|----------------|----------------|----------------|
G|----------------|----------------|----------------|----------------|
D|----------------|----------------|----------------|----------------|
A|--12-12-12-12---|--12-17-17-14---|--14-14-14-14---|--14-17-17-14---|
D|--12-12-12-12---|--12-17-17-14---|--14-14-14-14---|--14-17-17-14---|

E|----------------|----------------|----------------|----------------|
B|----------------|----------------|----------------|----------------|
G|----------------|----------------|----------------|----------------|
D|----------------|----------------|----------------|----------------|
A|--12-12-12-12---|--12-17-17-14---|--14-14-14-14---|--14-17-17-14---|
D|--12-12-12-12---|--12-17-17-14---|--14-14-14-14---|--14-17-17-14---|

E|----------------|----------------|----------------|----------------|
B|----------------|----------------|----------------|----------------|
G|----------------|----------------|----------------|----------------|
D|----------------|----------------|----------------|----------------|
A|--12-12-12-12---|--12-17-17-14---|--14-14-14-14---|--14-17-17-14---|
D|--12-12-12-12---|--12-17-17-14---|--14-14-14-14---|--14-17-17-14---|

E|----------------|----------------|----------------|----------------|
B|----------------|----------------|----------------|----------------|
G|----------------|----------------|----------------|----------------|
D|----------------|----------------|----------------|----------------|
A|--12-12-12-12---|--12-17-17-14---|--10-10-10-10---|--10-10-10-10---|
D|--12-12-12-12---|--12-17-17-14---|--10-10-10-10---|--10-10-10-10---|

E|----------------|----------------|
B|----------------|----------------|
G|----------------|----------------|
D|----------------|----------------|
A|--10-10-10-10---|--10-10-10-10---|
D|--10-10-10-10---|--10-10-10-10---|

[Riff]
E|----------------------------------------|----------------------------------------|
B|----------------------------------------|----------------------------------------|
G|-----------14-12----12------------------|--------------------12------------------|
D|-----------------14-------14-12----14---|-----------14-12-------------14---------|
A|----------------------------------------|-----------------14---------------------|
D|----------------------------------------|----------------------------------------|

E|----------------------------------------|----------------------------------------|
B|----------------------------------------|----------------------------------------|
G|-----------14-12----12------------------|--------------------12------------------|
D|-----------------14-------14-12----14---|-----------12----14----------14---------|
A|----------------------------------------|--12----14------------------------------|
D|----------------------------------------|----------------------------------------|

E|----------------------------------------|----------------------------------------|
B|----------------------------------------|----------------------------------------|
G|-----------14-12----12------------------|----------------------------------------|
D|-----------------14-------14-12----14---|-----------14-12----12------------------|
A|----------------------------------------|-----------------14----------14---------|
D|----------------------------------------|----------------------------------------|

E|----------------------------------------|----------------------------------------|
B|----------------------------------------|----------------------------------------|
G|-----------14-12----12------------------|--------------------12------------------|
D|-----------------14-------14-12----14---|-----------12----14----------14---------|
A|----------------------------------------|--12----14------------------------------|
D|----------------------------------------|----------------------------------------|

[Verse 3]
E|----------------------------------------|----------------------------------------|
B|----------------------------------------|----------------------------------------|
G|----------------------------------------|----------------------------------------|
D|----------------------------------------|----------------------------------------|
A|--14----14-14----14-14----14-14----14---|--14----14-14----14-14----14-14----14---|
D|--14----14-14----14-14----14-14----14---|--14----14-14----14-14----14-14----14---|

E|----------------------------------------|----------------|
B|----------------------------------------|----------------|
G|----------------------------------------|----------------|
D|----------------------------------------|--12----14------|
A|--14----14-14----14-14----14-14----14---|--10-12-12-14---|
D|--14----14-14----14-14----14-14----14---|-----12----14---|

E|----------------------------------------|----------------------------------------|
B|----------------------------------------|----------------------------------------|
G|----------------------------------------|----------------------------------------|
D|----------------------------------------|----------------------------------------|
A|--14----14-14----14-14----14-14----14---|--14----14-14----14-14----14-14----14---|
D|--14----14-14----14-14----14-14----14---|--14----14-14----14-14----14-14----14---|

E|----------------------------------------|----------------|
B|----------------------------------------|----------------|
G|----------------------------------------|----------------|
D|----------------------------------------|--12----14------|
A|--14----14-14----14-14----14-14----14---|--10-12-12-14---|
D|--14----14-14----14-14----14-14----14---|-----12----14---|

E|----------------------------------------|----------------------------------------|
B|----------------------------------------|----------------------------------------|
G|----------------------------------------|----------------------------------------|
D|----------------------------------------|----------------------------------------|
A|--10----10-10----10-10----10-10----10---|--10----10-10----10-10----10-10----10---|
D|--10----10-10----10-10----10-10----10---|--10----10-10----10-10----10-10----10---|

E|----------------------------------------|----------------------|
B|----------------------------------------|----------------------|
G|----------------------------------------|----------------------|
D|----------------------------------------|----------------------|
A|--10----10-10----10-10----10-10----10---|--12------------------|
D|--10----10-10----10-10----10-10----10---|--12------------------|

            
            
Suggest correction
Creating personal tab
Creating personal tab
You can edit any tab online and save it as your Personal.

You can edit, replace or remove any tab part or add personal notes – all changes will be seen only by you.

Personal tabs can be accessed anytime from any device, even offline.
Learn more »
Give kudos to tab author, rate the tab!
1 2 3 4 5
comments
print report bad tab
guest
You may want to rate the tab now too:
select rating
Wanna post a correction for this tab? Suggest correction