Oops, an error
Loading. Please wait.

In The Morning tab

version 1
version 1

Whole song

Interactive

15,702 views 1 this week
1 commentread comment
1 2 3 4 5
x 8
add to favorites
×
Save as Personal and add changes to this tab that will be seen only by you. Learn more ›
×
You can save this tab as Personal to edit and correct it or add notes. All changes will be seen only by you. Learn more »
launch autoscroll
font size
0
reset
how to read this tab
guitar tuner
edit
Autoscroll
slow
fast
+/-
esc
set tempo
stop
Author
Difficulty
Transcribed by Danleary

Hello Wolfmother.net!

Standard Tuning

Key

 ^  : Bend [1/4, 1/2, 1, etc.]
 v  : Bring bend back down
 /  : Slide into
 \  : Slide out of
 h  : Hammer on
 p  : Pull Off
(-) : Do not pick note
 =  : Vibrato
 T  : Fret with thumb
_____________________________________________________________________________

Intro/Verse

Listen carefully for the open A string, he strums it in the background
throughout the verse.

Let Ring

0:00                   0:03                         0:06                 0:09

|---------------------------------------------------------------------------|
|----2-----3--2-0h2p0-----0-----0-----3---2p0-----0-----2-----3---2-0h2p0---|
|------2--------------0-----0-----0-----------0h2---0-----2---------------0-|
|---------------------------------------------------------------------------|
|--0-----0--0-----------------0-----0---0-------------------0---0-----------|
|-----------------------3-----------------------------2---------------------|
                        T                             T

0:10                     0:12

|---------------------------|
|----2-----3---2p0-----0----|
|------2-----------0h2---2--|
|---------------------------|
|--------0---0--------------|
|--1------------------------|
   T

Repeat

Variation I                             Variation II

0:55                     0:57     |     1:16                    1:19

|---------------------------|           |---------------------------|
|----2-----3/5---3h2-2p0----|           |----0-----3/5-3h2-0h2p0----|
|------2-----------------0--|           |------0-----------------0--|
|---------------------------|           |---------------------------|
|--------0-----0------------|           |---------------------------|
|--2------------------------|           |--3-----3------------------|
   T                                       T     T

Variation III

1:22               1:25

|---------------------|
|----2---3-2-0h2p0----|
|------2-----------0--|
|---------------------|
|---------------------|
|--1------------------|
   T
_____________________________________________________________________________

Bridge

Let Ring

0:37                                                         0:44

|---------------------------------------------------------------|
|----1-----1-----1-----1-----1-----0-----2-----3---2p0-----0----|
|------0-----0-----0-----0-----0-----0-----2-----------0h2---0--|
|--3-----2-----0-----------------------0------------------------|
|--------------------3-----2-----------------0---0----(0)-------|
|--------------------------------3------------------------------|
                                 T
                                                           Repeat
Variation

1:36                     1:39

|---------------------------|
|----0-----0-----0-----0----|
|------0-0---0-----0-0---0--|
|--------------0------------|
|--2------------------------|
|---------------------------|
_____________________________________________________________________________

Chorus

Guitar I

1:39                                                 1:45

   A   D   A   C     F   C      G   C   G   D     G   D
|-------------------------------0-------0----------------|
|--2---3---2---5-----6---5------0---1---0---7-----8---7--|
|--2---2---2---5-----5---5------0---0---0---7-----7---7--|
|--2---4---2---5-----7---5------0---2---0---7-----9---7--|
|--0---0---0---0-----0---0------0---0---0---0-----0---0--|
|--------------------------------------------------------|

                                                    Repeat

Guitar II

Harmonic bend

1:39                                     1:43

   [1] - - >      [1] - - >      [1] - >
|--5--5-5-5-------5--5-5-5-------5--5-5-----|
|--8^-8-8-8-8v----8^-8-8-8-8v----8^-8-8-8v--|
|-------------------------------------------|
|-------------------------------------------|
|-------------------------------------------|
|-------------------------------------------|

                                       Repeat
_____________________________________________________________________________

Climax

2:16                                   2:19

   F       C       G       D       A
|--1-1-1---0-0-0---3-3-3---3-3-3----------|
|--1-1-1---1-1-1---0-0-0---2-2-2---2-2-2--|
|--2-2-2---0-0-0---0-0-0---3-3-3---2-2-2--|
|--3-3-3---2-2-2---0-0-0---0-0-0---2-2-2--|
|----------3-3-3---2-2-2---0-0-0---0-0-0--|
|------------------3-3-3------------------|
_____________________________________________________________________________

Outro

Guitar I

See Intro/Verse

Guitar II

   A   A     F#  G
|-------------------|
|--2---2------------|
|--2---2------------|
|--2---2-----4---5--|
|--0---0-----4---5--|
|------------2---3--|
_____________________________________________________________________________

Solo

4:27          4:30                    4:33                           4:34
 [1/2][1/2]                           [1]          [1]       [1]
|-----------------------------------------------------------------------|
|-----------------------------------------------------------------------|
|-----------------------------------------------------------------------|
|-12^---12^---10----------------------12^p10-------12^p10----12^p10-----|
|----------------12-12-12-12-12-12-12--------12-12--------12--------12--|
|-----------------------------------------------------------------------|

4:35                                        4:38
                                              [1]
|--------------------------------------------10^-10-8----8-----|
|----------------10-10-10-10-10-10-10-10====----------10---10--|
|--------------------------------------------------------------|
|--------------------------------------------------------------|
|-12-12-12-12-12-----------------------------------------------|
|--------------------------------------------------------------|

4:41                                         4:44
              [1]             [1]        [1]
|-------8-10-10^v(10)---8-10-10^---8-10-10^/19--|
|--8-10-----------------------------------------|
|-----------------------------------------------|
|-----------------------------------------------|
|-----------------------------------------------|
|-----------------------------------------------|

4:45                            4:47
                        [1/4]  [1/4]
|--19^v(19)-17----17-15(15^)-17-15^-17----17-15-----------|
|--------------19----------------------17-------17-15-17--|
|---------------------------------------------------------|
|---------------------------------------------------------|
|---------------------------------------------------------|
|---------------------------------------------------------|

4:47                                                            4:51
   [1]
|----------------------------------------------------15-------------|
|--15^--17-15-13----13----------------------13-15-17^----17-13------|
|----------------14----14-12-14-12----12-14--------------------14\--|
|----------------------------------14-------------------------------|
|-------------------------------------------------------------------|
|-------------------------------------------------------------------|

4:51

|---------------------------------------------------------------------------|
|---------------------------------------------------------------------------|
|---------------------------------------------------------------------------|
|14-14-14-14-10----10----10-12-10----10-------------------------------------|
|---------------12----12----------12---12-10-12-10----10---------10-12-10-12|
|--------------------------------------------------12----12-10-12-----------|

4:55                       4:56
    [1]  [1] - - - - - >   [1]     [1]    [1]    [1]    [1]
|--------------------------------------------------------------|
|--------------------------------------------------------------|
|------------------------------12-----12-----12-----12-----12--|
|--12^----^12-^12-^12v(12)-12^----12^----12^----12^----12^-----|
|--------------------------------------------------------------|
|--------------------------------------------------------------|

4:58                           5:00                 5:02
                                  [1]               [1/4}
|------------------------------8-10^v(10)-8----8-----8^----------------|
|--------------------------10---------------10---10-----10-8-10-10/19--|
|--------------------10-12---------------------------------------------|
|--10----------10-12---------------------------------------------------|
|-----12-10-12---------------------------------------------------------|
|----------------------------------------------------------------------|

5:04               5:06                             
   [1/2]               [1]    [1]    [1]    [1] 
|--22^v(22)-17-15--17-15^-17-15^-17-15^-17-15^-15--|
|--------------------------------------------------|
|--------------------------------------------------|
|--------------------------------------------------|
|--------------------------------------------------|
|--------------------------------------------------|

5:09
    [1]
|---------------------------------------------------|
|--15^--15-13-13----13-----------13-15-13----13-----|
|----------------14----14--12-14----------14----14--|
|---------------------------------------------------|
|---------------------------------------------------|
|---------------------------------------------------|

5:11                                                    5:14

|--------------------------------------------------------------------------|
|--------------------------------------------------------------------------|
|--12-14-12----12----------------------------------------------------------|
|-----------14----14-12-14-12-10-12-10------------------------10----10-12--|
|--------------------------------------12-10-12-12-12---10-12----12--------|
|--------------------------------------------------------------------------|

5:16                                   5:18
    [1]   [1] [1] - - - - - >
|------------------------------------------|
|------------------------------------------|
|------------------------------------------|
|--12^---10^---^12-^12-^12-^12v(12)-10-----|
|--------------------------------------12--|
|------------------------------------------|

5:19
                                                    [1]
|---------------------------------------------------------------------------|
|---------------------------------------------------------------------------|
|---------------------------------------------------------------------------|
|--10----------------------------------------10-12-12^v(12)-10----10----10--|
|-----12-10-12-10-12-10----10----10-12-10-12-------------------12----12-----|
|-----------------------12----12--------------------------------------------|

5:23                               5:25

|----------------------------------------|
|----------------------------------------|
|----------------------------------------|
|--12^v(12)-10----10---------------------|
|--------------12----12-10-12-10-12====--|
|----------------------------------------|
Suggest correction
Creating personal tab
Creating personal tab
You can edit any tab online and save it as your Personal.

You can edit, replace or remove any tab part or add personal notes – all changes will be seen only by you.

Personal tabs can be accessed anytime from any device, even offline.
Learn more »
comments
print report bad tab
1 comment total.
0 reply
Captain Zan 20 Dec 15, 2009 02:37 PM

great tab thx sounds pretty much perfect

guest
You may want to rate the tab now too:
select rating
Wanna post a correction for this tab? Suggest correction