Oops, an error
Loading. Please wait.
We have an official Joker And The Thief tab made by UG professional guitarists. Check out the tab »
×
16,597 views 9 this week
no commentswrite comment
1 2 3 4 5
x 5
add to favorites
×
Save as Personal and add changes to this tab that will be seen only by you. Learn more ›
×
You can save this tab as Personal to edit and correct it or add notes. All changes will be seen only by you. Learn more »
launch autoscroll
font size
0
reset
guitar tuner
backing track
0:00
0:00
edit
Autoscroll
slow
fast
+/-
esc
set tempo
stop
Author
Difficulty
this is an easy version of joker and the thief for beginners and maybe intermediate bass 
who want to have some fun jamming with some mates

rest while guitar plays the intro riff

G]--------------------------------------------------------------------|
D]--------------------------------------------------------------------|
A]-5-5-5-5-5-5-5/7-5/7-5/7----x3------8-8-8-8-10-10-8/10-8/10-8/10----|x1
E]--------------------------------------------------------------------|

G]--------------------------------------------------------------------|
D]--------------------------------------------------------------------|
A]-5-5-5-5-5-5-5/7-5/7-5/7----x5------8-8-8-8-10-10-8/10-8/10-8/10----|x1
E]--------------------------------------------------------------------|

G]--------------------------------------------------------------------|
D]--------------------------------------------------------------------|
A]-5-5-5-5-5-5-5/7-5/7-5/7----x5------8-8-8-8-10-10-8/10-8/10-8/10----|x1
E]--------------------------------------------------------------------|

rest while guitar plays the intro riff

G]--------------------------------------------------------------------|
D]--------------------------------------------------------------------|
A]-5-5-5-5-5-5-5/7-5/7-5/7----x7------8-8-8-8-10-10-8/10-8/10-8/10----|x1
E]--------------------------------------------------------------------|

rest while guitar plays the intro riff

AT THE END
G]-------------------------------------------------------------------|
D]-------------------------------------------------------------------|
A]-5-5-5-5-5-5-5/7-5/7-5/7----x4---------3--5--3--5------------------|
E]-------------------------------------------------------------------|

            
            
Suggest correction
Creating personal tab
Creating personal tab
You can edit any tab online and save it as your Personal.

You can edit, replace or remove any tab part or add personal notes – all changes will be seen only by you.

Personal tabs can be accessed anytime from any device, even offline.
Learn more »
comments
print report bad tab
guest
You may want to rate the tab now too:
select rating
Wanna post a correction for this tab? Suggest correction